  0
SECTION
  2
HEADER
  9
$ACADVER
  1
AC1018
  9
$ACADMAINTVER
 70
   104
  9
$DWGCODEPAGE
  3
ANSI_1252
  9
$LASTSAVEDBY
  1
user
  9
$INSBASE
 10
0.0
 20
0.0
 30
0.0
  9
$EXTMIN
 10
1175.367899999999
 20
575.4659934681412
 30
0.0
  9
$EXTMAX
 10
1213.028795673401
 20
593.4580834681383
 30
0.0
  9
$LIMMIN
 10
0.0
 20
0.0
  9
$LIMMAX
 10
420.0
 20
297.0
  9
$ORTHOMODE
 70
     1
  9
$REGENMODE
 70
     1
  9
$FILLMODE
 70
     1
  9
$QTEXTMODE
 70
     0
  9
$MIRRTEXT
 70
     0
  9
$LTSCALE
 40
1.0
  9
$ATTMODE
 70
     1
  9
$TEXTSIZE
 40
0.3937
  9
$TRACEWID
 40
1.0
  9
$TEXTSTYLE
  7
\U+C2A4\U+D0C0\U+C77C2
  9
$CLAYER
  8
0
  9
$CELTYPE
  6
ByLayer
  9
$CECOLOR
 62
   256
  9
$CELTSCALE
 40
1.0
  9
$DISPSILH
 70
     0
  9
$DIMSCALE
 40
1.0
  9
$DIMASZ
 40
0.2
  9
$DIMEXO
 40
0.1
  9
$DIMDLI
 40
0.039
  9
$DIMRND
 40
0.0
  9
$DIMDLE
 40
0.0
  9
$DIMEXE
 40
0.2
  9
$DIMTP
 40
0.0
  9
$DIMTM
 40
0.0
  9
$DIMTXT
 40
2.5
  9
$DIMCEN
 40
0.039
  9
$DIMTSZ
 40
0.0
  9
$DIMTOL
 70
     0
  9
$DIMLIM
 70
     0
  9
$DIMTIH
 70
     0
  9
$DIMTOH
 70
     0
  9
$DIMSE1
 70
     0
  9
$DIMSE2
 70
     0
  9
$DIMTAD
 70
     1
  9
$DIMZIN
 70
     8
  9
$DIMBLK
  1

  9
$DIMASO
 70
     1
  9
$DIMSHO
 70
     1
  9
$DIMPOST
  1

  9
$DIMAPOST
  1

  9
$DIMALT
 70
     0
  9
$DIMALTD
 70
     2
  9
$DIMALTF
 40
0.0394
  9
$DIMLFAC
 40
1.0
  9
$DIMTOFL
 70
     1
  9
$DIMTVP
 40
1.0
  9
$DIMTIX
 70
     0
  9
$DIMSOXD
 70
     0
  9
$DIMSAH
 70
     0
  9
$DIMBLK1
  1

  9
$DIMBLK2
  1

  9
$DIMSTYLE
  2
DIN
  9
$DIMCLRD
 70
     0
  9
$DIMCLRE
 70
     0
  9
$DIMCLRT
 70
     0
  9
$DIMTFAC
 40
1.0
  9
$DIMGAP
 40
0.05
  9
$DIMJUST
 70
     0
  9
$DIMSD1
 70
     0
  9
$DIMSD2
 70
     0
  9
$DIMTOLJ
 70
     1
  9
$DIMTZIN
 70
     0
  9
$DIMALTZ
 70
     0
  9
$DIMALTTZ
 70
     0
  9
$DIMUPT
 70
     0
  9
$DIMDEC
 70
     4
  9
$DIMTDEC
 70
     4
  9
$DIMALTU
 70
     8
  9
$DIMALTTD
 70
     2
  9
$DIMTXSTY
  7
\U+C2A4\U+D0C0\U+C77C2
  9
$DIMAUNIT
 70
     0
  9
$DIMADEC
 70
     0
  9
$DIMALTRND
 40
0.0
  9
$DIMAZIN
 70
     0
  9
$DIMDSEP
 70
    46
  9
$DIMATFIT
 70
     3
  9
$DIMFRAC
 70
     0
  9
$DIMLDRBLK
  1

  9
$DIMLUNIT
 70
     6
  9
$DIMLWD
 70
    -2
  9
$DIMLWE
 70
    -2
  9
$DIMTMOVE
 70
     0
  9
$LUNITS
 70
     3
  9
$LUPREC
 70
     4
  9
$SKETCHINC
 40
1.0
  9
$FILLETRAD
 40
1.0
  9
$AUNITS
 70
     0
  9
$AUPREC
 70
     0
  9
$MENU
  1
.
  9
$ELEVATION
 40
0.0
  9
$PELEVATION
 40
0.0
  9
$THICKNESS
 40
0.0
  9
$LIMCHECK
 70
     0
  9
$CHAMFERA
 40
0.0
  9
$CHAMFERB
 40
0.0
  9
$CHAMFERC
 40
0.0
  9
$CHAMFERD
 40
0.0
  9
$SKPOLY
 70
     0
  9
$TDCREATE
 40
2454393.137688252
  9
$TDUCREATE
 40
2454393.346021586
  9
$TDUPDATE
 40
2458464.617993924
  9
$TDUUPDATE
 40
2458464.826327257
  9
$TDINDWG
 40
0.8883308912
  9
$TDUSRTIMER
 40
0.8883305324
  9
$USRTIMER
 70
     1
  9
$ANGBASE
 50
0.0
  9
$ANGDIR
 70
     0
  9
$PDMODE
 70
     0
  9
$PDSIZE
 40
0.0
  9
$PLINEWID
 40
0.0
  9
$SPLFRAME
 70
     0
  9
$SPLINETYPE
 70
     6
  9
$SPLINESEGS
 70
     8
  9
$HANDSEED
  5
236F
  9
$SURFTAB1
 70
     6
  9
$SURFTAB2
 70
     6
  9
$SURFTYPE
 70
     6
  9
$SURFU
 70
     6
  9
$SURFV
 70
     6
  9
$UCSBASE
  2

  9
$UCSNAME
  2

  9
$UCSORG
 10
0.0
 20
0.0
 30
0.0
  9
$UCSXDIR
 10
1.0
 20
0.0
 30
0.0
  9
$UCSYDIR
 10
0.0
 20
1.0
 30
0.0
  9
$UCSORTHOREF
  2

  9
$UCSORTHOVIEW
 70
     0
  9
$UCSORGTOP
 10
0.0
 20
0.0
 30
0.0
  9
$UCSORGBOTTOM
 10
0.0
 20
0.0
 30
0.0
  9
$UCSORGLEFT
 10
0.0
 20
0.0
 30
0.0
  9
$UCSORGRIGHT
 10
0.0
 20
0.0
 30
0.0
  9
$UCSORGFRONT
 10
0.0
 20
0.0
 30
0.0
  9
$UCSORGBACK
 10
0.0
 20
0.0
 30
0.0
  9
$PUCSBASE
  2

  9
$PUCSNAME
  2

  9
$PUCSORG
 10
0.0
 20
0.0
 30
0.0
  9
$PUCSXDIR
 10
1.0
 20
0.0
 30
0.0
  9
$PUCSYDIR
 10
0.0
 20
1.0
 30
0.0
  9
$PUCSORTHOREF
  2

  9
$PUCSORTHOVIEW
 70
     0
  9
$PUCSORGTOP
 10
0.0
 20
0.0
 30
0.0
  9
$PUCSORGBOTTOM
 10
0.0
 20
0.0
 30
0.0
  9
$PUCSORGLEFT
 10
0.0
 20
0.0
 30
0.0
  9
$PUCSORGRIGHT
 10
0.0
 20
0.0
 30
0.0
  9
$PUCSORGFRONT
 10
0.0
 20
0.0
 30
0.0
  9
$PUCSORGBACK
 10
0.0
 20
0.0
 30
0.0
  9
$USERI1
 70
     0
  9
$USERI2
 70
     0
  9
$USERI3
 70
     0
  9
$USERI4
 70
     0
  9
$USERI5
 70
     0
  9
$USERR1
 40
0.0
  9
$USERR2
 40
0.0
  9
$USERR3
 40
0.0
  9
$USERR4
 40
0.0
  9
$USERR5
 40
0.0
  9
$WORLDVIEW
 70
     1
  9
$SHADEDGE
 70
     3
  9
$SHADEDIF
 70
    70
  9
$TILEMODE
 70
     1
  9
$MAXACTVP
 70
    64
  9
$PINSBASE
 10
0.0
 20
0.0
 30
0.0
  9
$PLIMCHECK
 70
     0
  9
$PEXTMIN
 10
1.000000000000000E+20
 20
1.000000000000000E+20
 30
1.000000000000000E+20
  9
$PEXTMAX
 10
-1.000000000000000E+20
 20
-1.000000000000000E+20
 30
-1.000000000000000E+20
  9
$PLIMMIN
 10
0.0071835950613108
 20
0.0009369707933118
  9
$PLIMMAX
 10
841.0071835950612
 20
594.0009369707931
  9
$UNITMODE
 70
     0
  9
$VISRETAIN
 70
     1
  9
$PLINEGEN
 70
     0
  9
$PSLTSCALE
 70
     1
  9
$TREEDEPTH
 70
  3020
  9
$CMLSTYLE
  2
Standard
  9
$CMLJUST
 70
     0
  9
$CMLSCALE
 40
20.0
  9
$PROXYGRAPHICS
 70
     1
  9
$MEASUREMENT
 70
     1
  9
$CELWEIGHT
370
    -1
  9
$ENDCAPS
280
     0
  9
$JOINSTYLE
280
     0
  9
$LWDISPLAY
290
     0
  9
$INSUNITS
 70
     1
  9
$HYPERLINKBASE
  1

  9
$STYLESHEET
  1

  9
$XEDIT
290
     1
  9
$CEPSNTYPE
380
     0
  9
$PSTYLEMODE
290
     1
  9
$FINGERPRINTGUID
  2
{AC2FA5CB-6F18-4BC2-9C5F-F25C10372E5B}
  9
$VERSIONGUID
  2
{EB0E30BF-024E-4AFA-9C0C-5B6F52EA6FE5}
  9
$EXTNAMES
290
     1
  9
$PSVPSCALE
 40
0.0
  9
$OLESTARTUP
290
     0
  9
$SORTENTS
280
   127
  9
$INDEXCTL
280
     0
  9
$HIDETEXT
280
     0
  9
$XCLIPFRAME
290
     0
  9
$HALOGAP
280
     0
  9
$OBSCOLOR
 70
   257
  9
$OBSLTYPE
280
     0
  9
$INTERSECTIONDISPLAY
280
     0
  9
$INTERSECTIONCOLOR
 70
   257
  9
$DIMASSOC
280
     1
  9
$PROJECTNAME
  1

  0
ENDSEC
  0
SECTION
  2
CLASSES
  0
CLASS
  1
ACDBDICTIONARYWDFLT
  2
AcDbDictionaryWithDefault
  3
ObjectDBX Classes
 90
        0
 91
        1
280
     0
281
     0
  0
CLASS
  1
PLOTSETTINGS
  2
AcDbPlotSettings
  3
ObjectDBX Classes
 90
        0
 91
        0
280
     0
281
     0
  0
CLASS
  1
DICTIONARYVAR
  2
AcDbDictionaryVar
  3
ObjectDBX Classes
 90
        0
 91
        3
280
     0
281
     0
  0
CLASS
  1
TABLESTYLE
  2
AcDbTableStyle
  3
ObjectDBX Classes
 90
     4095
 91
        1
280
     0
281
     0
  0
CLASS
  1
DIMASSOC
  2
AcDbDimAssoc
  3
"AcDbDimAssoc|Product Desc:     AcDim ARX App For Dimension|Company:          Autodesk, Inc.|WEB Address:      www.autodesk.com"
 90
        0
 91
        0
280
     0
281
     0
  0
CLASS
  1
SORTENTSTABLE
  2
AcDbSortentsTable
  3
ObjectDBX Classes
 90
        0
 91
        2
280
     0
281
     0
  0
CLASS
  1
MATERIAL
  2
AcDbMaterial
  3
ObjectDBX Classes
 90
     1024
 91
        3
280
     0
281
     0
  0
CLASS
  1
VISUALSTYLE
  2
AcDbVisualStyle
  3
ObjectDBX Classes
 90
     4095
 91
       16
280
     0
281
     0
  0
ENDSEC
  0
SECTION
  2
TABLES
  0
TABLE
  2
VPORT
  5
19
330
0
100
AcDbSymbolTable
 70
     1
  0
VPORT
  5
233B
330
19
100
AcDbSymbolTableRecord
100
AcDbViewportTableRecord
  2
*Active
 70
     0
 10
0.0
 20
0.0
 11
1.0
 21
1.0
 12
1202.419898466565
 22
578.2570272260256
 13
0.0
 23
0.0
 14
10.0
 24
10.0
 15
10.0
 25
10.0
 16
0.0
 26
0.0
 36
1.0
 17
0.0
 27
0.0
 37
0.0
 40
11.08215160303325
 41
2.738095238095238
 42
50.0
 43
0.0
 44
0.0
 50
0.0
 51
0.0
 71
     0
 72
  1000
 73
     1
 74
     3
 75
     0
 76
     0
 77
     0
 78
     0
281
     0
 65
     1
110
0.0
120
0.0
130
0.0
111
1.0
121
0.0
131
0.0
112
0.0
122
1.0
132
0.0
 79
     0
146
0.0
  0
ENDTAB
  0
TABLE
  2
LTYPE
  5
14
330
0
100
AcDbSymbolTable
 70
     2
  0
LTYPE
  5
15
330
14
100
AcDbSymbolTableRecord
100
AcDbLinetypeTableRecord
  2
ByBlock
 70
     0
  3

 72
    65
 73
     0
 40
0.0
  0
LTYPE
  5
16
330
14
100
AcDbSymbolTableRecord
100
AcDbLinetypeTableRecord
  2
ByLayer
 70
     0
  3

 72
    65
 73
     0
 40
0.0
  0
LTYPE
  5
8
330
14
100
AcDbSymbolTableRecord
100
AcDbLinetypeTableRecord
  2
Continuous
 70
     0
  3
Solid line
 72
    65
 73
     0
 40
0.0
  0
LTYPE
  5
1811
330
14
100
AcDbSymbolTableRecord
100
AcDbLinetypeTableRecord
  2
ACAD_ISO04W100
 70
     0
  3
ISO long-dash dot ____ . ____ . ____ . ____ . _
 72
    65
 73
     4
 40
30.0
 49
24.0
 74
     0
 49
-3.0
 74
     0
 49
0.0
 74
     0
 49
-3.0
 74
     0
  0
ENDTAB
  0
TABLE
  2
LAYER
  5
10
102
{ACAD_XDICTIONARY
360
1FA7
102
}
330
0
100
AcDbSymbolTable
 70
     9
  0
LAYER
  5
4
330
10
100
AcDbSymbolTableRecord
100
AcDbLayerTableRecord
  2
0
 70
     0
 62
     7
  6
Continuous
370
    -3
390
5
  0
LAYER
  5
8E
330
10
100
AcDbSymbolTableRecord
100
AcDbLayerTableRecord
  2
07
 70
     0
 62
     7
  6
Continuous
370
    -3
390
5
  0
LAYER
  5
8F
330
10
100
AcDbSymbolTableRecord
100
AcDbLayerTableRecord
  2
035
 70
     0
 62
     5
  6
Continuous
370
    -3
390
5
  0
LAYER
  5
90
330
10
100
AcDbSymbolTableRecord
100
AcDbLayerTableRecord
  2
05
 70
     0
 62
     6
  6
Continuous
370
    -3
390
5
  0
LAYER
  5
91
330
10
100
AcDbSymbolTableRecord
100
AcDbLayerTableRecord
  2
025
 70
     0
 62
     1
  6
Continuous
370
    -3
390
5
  0
LAYER
  5
5CE
330
10
100
AcDbSymbolTableRecord
100
AcDbLayerTableRecord
  2
Defpoints
 70
     0
 62
     7
  6
Continuous
290
     0
370
    -3
390
5
  0
LAYER
  5
62B
330
10
100
AcDbSymbolTableRecord
100
AcDbLayerTableRecord
  2
\U+7C97\U+5B9E\U+7EBF
 70
     0
 62
     7
  6
Continuous
370
    30
390
5
  0
LAYER
  5
62C
330
10
100
AcDbSymbolTableRecord
100
AcDbLayerTableRecord
  2
\U+6807\U+6CE8\U+7EBF
 70
     0
 62
     7
  6
Continuous
370
    13
390
5
  0
LAYER
  5
1812
330
10
100
AcDbSymbolTableRecord
100
AcDbLayerTableRecord
  2
\U+4E2D\U+5FC3\U+7EBF
 70
     0
 62
     7
  6
ACAD_ISO04W100
370
    18
390
5
  0
ENDTAB
  0
TABLE
  2
STYLE
  5
11
330
0
100
AcDbSymbolTable
 70
     4
  0
STYLE
  5
12
330
11
100
AcDbSymbolTableRecord
100
AcDbTextStyleTableRecord
  2
Standard
 70
     0
 40
0.0
 41
1.0
 50
0.0
 71
     0
 42
2.5
  3
txt
  4

  0
STYLE
  5
31
330
11
100
AcDbSymbolTableRecord
100
AcDbTextStyleTableRecord
  2
ISO Proportional
 70
     0
 40
0.0
 41
1.0
 50
0.0
 71
     0
 42
2.5
  3
isocp.shx
  4

  0
STYLE
  5
B96
330
11
100
AcDbSymbolTableRecord
100
AcDbTextStyleTableRecord
  2
\U+C2A4\U+D0C0\U+C77C1
 70
     0
 40
0.1968
 41
1.0
 50
0.0
 71
     0
 42
2.5
  3
txt.shx
  4

  0
STYLE
  5
B97
330
11
100
AcDbSymbolTableRecord
100
AcDbTextStyleTableRecord
  2
\U+C2A4\U+D0C0\U+C77C2
 70
     0
 40
0.3937
 41
1.0
 50
0.0
 71
     0
 42
0.3937
  3
txt.shx
  4

  0
ENDTAB
  0
TABLE
  2
VIEW
  5
17
330
0
100
AcDbSymbolTable
 70
     0
  0
ENDTAB
  0
TABLE
  2
UCS
  5
18
330
0
100
AcDbSymbolTable
 70
     0
  0
ENDTAB
  0
TABLE
  2
APPID
  5
1B
330
0
100
AcDbSymbolTable
 70
    12
  0
APPID
  5
1C
330
1B
100
AcDbSymbolTableRecord
100
AcDbRegAppTableRecord
  2
ACAD
 70
     0
  0
APPID
  5
346
330
1B
100
AcDbSymbolTableRecord
100
AcDbRegAppTableRecord
  2
GENIUS_GENTRA_14
 70
     0
  0
APPID
  5
347
330
1B
100
AcDbSymbolTableRecord
100
AcDbRegAppTableRecord
  2
GENIUS_GENODEF_13
 70
     0
  0
APPID
  5
348
330
1B
100
AcDbSymbolTableRecord
100
AcDbRegAppTableRecord
  2
GENIUS_GENOBJ-N-TIT_13
 70
     0
  0
APPID
  5
349
330
1B
100
AcDbSymbolTableRecord
100
AcDbRegAppTableRecord
  2
GENIUS_GENTITLE_13
 70
     0
  0
APPID
  5
34A
330
1B
100
AcDbSymbolTableRecord
100
AcDbRegAppTableRecord
  2
GENIUS_GENOENT_13
 70
     0
  0
APPID
  5
34B
330
1B
100
AcDbSymbolTableRecord
100
AcDbRegAppTableRecord
  2
GENIUS_GENOREF_13
 70
     0
  0
APPID
  5
34C
330
1B
100
AcDbSymbolTableRecord
100
AcDbRegAppTableRecord
  2
GENIUS_GENOLIS_13
 70
     0
  0
APPID
  5
34D
330
1B
100
AcDbSymbolTableRecord
100
AcDbRegAppTableRecord
  2
GENIUS_GENOBJ-N-SDF_13
 70
     0
  0
APPID
  5
34E
330
1B
100
AcDbSymbolTableRecord
100
AcDbRegAppTableRecord
  2
GENIUS_GENSCREG_13
 70
     0
  0
APPID
  5
886
330
1B
100
AcDbSymbolTableRecord
100
AcDbRegAppTableRecord
  2
ACAD_DSTYLE_DIMTEXT_FILL
 70
     0
  0
APPID
  5
B8B
330
1B
100
AcDbSymbolTableRecord
100
AcDbRegAppTableRecord
  2
ACAD_PSEXT
 70
     0
  0
ENDTAB
  0
TABLE
  2
DIMSTYLE
  5
1D
330
0
100
AcDbSymbolTable
 70
     4
100
AcDbDimStyleTable
 71
     1
340
1E
  0
DIMSTYLE
105
1E
330
1D
100
AcDbSymbolTableRecord
100
AcDbDimStyleTableRecord
  2
DIN
 70
     0
 41
2.5
 42
0.625
 43
3.75
 44
1.25
 74
     0
 77
     1
 78
     8
140
2.5
141
2.5
143
0.0394
145
1.0
147
0.625
172
     1
273
     8
277
     6
340
12
  0
DIMSTYLE
105
62D
330
1D
100
AcDbSymbolTableRecord
100
AcDbDimStyleTableRecord
  2
ISO-25
 70
     0
 41
10.0
 42
0.625
 43
3.75
 44
10.0
 73
     0
 74
     0
 77
     1
 78
     8
140
20.0
141
2.5
143
0.03937007874016
147
10.0
171
     3
172
     1
271
     2
272
     2
274
     3
278
    44
279
     1
283
     0
284
     8
340
12
  0
DIMSTYLE
105
62E
330
1D
100
AcDbSymbolTableRecord
100
AcDbDimStyleTableRecord
  2
\U+526F\U+672CISO-25
 70
     0
 41
15.0
 42
0.625
 43
3.75
 44
2.0
 73
     0
 74
     0
 77
     1
 78
     8
140
22.0
141
2.5
143
0.03937007874016
147
10.0
171
     3
179
     1
271
     1
272
     1
274
     3
278
    44
279
     1
283
     0
284
     8
340
12
  0
DIMSTYLE
105
62F
330
1D
100
AcDbSymbolTableRecord
100
AcDbDimStyleTableRecord
  2
\U+526F\U+672C (2)ISO-25
 70
     0
 41
10.0
 42
0.625
 43
3.75
 44
10.0
 73
     0
 74
     0
 77
     1
 78
     8
140
10.0
141
2.5
143
0.03937007874016
147
10.0
171
     3
172
     1
271
     2
272
     2
274
     3
278
    44
283
     0
284
     8
340
12
  0
ENDTAB
  0
TABLE
  2
BLOCK_RECORD
  5
1
330
0
100
AcDbSymbolTable
 70
    14
  0
BLOCK_RECORD
  5
2
102
{ACAD_XDICTIONARY
360
95E
102
}
330
1
100
AcDbSymbolTableRecord
100
AcDbBlockTableRecord
  2
*Model_Space
340
A
  0
BLOCK_RECORD
  5
C
330
1
100
AcDbSymbolTableRecord
100
AcDbBlockTableRecord
  2
*Paper_Space
340
F
  0
BLOCK_RECORD
  5
224C
330
1
100
AcDbSymbolTableRecord
100
AcDbBlockTableRecord
  2
*D0
340
0
  0
BLOCK_RECORD
  5
2259
330
1
100
AcDbSymbolTableRecord
100
AcDbBlockTableRecord
  2
*D1
340
0
  0
BLOCK_RECORD
  5
2266
330
1
100
AcDbSymbolTableRecord
100
AcDbBlockTableRecord
  2
*D2
340
0
  0
BLOCK_RECORD
  5
226F
330
1
100
AcDbSymbolTableRecord
100
AcDbBlockTableRecord
  2
*D3
340
0
  0
BLOCK_RECORD
  5
2278
330
1
100
AcDbSymbolTableRecord
100
AcDbBlockTableRecord
  2
*D4
340
0
  0
BLOCK_RECORD
  5
2281
330
1
100
AcDbSymbolTableRecord
100
AcDbBlockTableRecord
  2
*D5
340
0
  0
BLOCK_RECORD
  5
228A
330
1
100
AcDbSymbolTableRecord
100
AcDbBlockTableRecord
  2
*D6
340
0
  0
BLOCK_RECORD
  5
2293
330
1
100
AcDbSymbolTableRecord
100
AcDbBlockTableRecord
  2
*D7
340
0
  0
BLOCK_RECORD
  5
229C
330
1
100
AcDbSymbolTableRecord
100
AcDbBlockTableRecord
  2
*D8
340
0
  0
BLOCK_RECORD
  5
22A9
330
1
100
AcDbSymbolTableRecord
100
AcDbBlockTableRecord
  2
*D9
340
0
  0
BLOCK_RECORD
  5
22B6
330
1
100
AcDbSymbolTableRecord
100
AcDbBlockTableRecord
  2
*D10
340
0
  0
BLOCK_RECORD
  5
22C3
330
1
100
AcDbSymbolTableRecord
100
AcDbBlockTableRecord
  2
*D11
340
0
  0
BLOCK_RECORD
  5
22D0
330
1
100
AcDbSymbolTableRecord
100
AcDbBlockTableRecord
  2
*D12
340
0
  0
ENDTAB
  0
ENDSEC
  0
SECTION
  2
BLOCKS
  0
BLOCK
  5
3
330
2
100
AcDbEntity
  8
0
100
AcDbBlockBegin
  2
*Model_Space
 70
     2
 10
0.0
 20
0.0
 30
0.0
  3
*Model_Space
  1

  0
ENDBLK
  5
9
330
2
100
AcDbEntity
  8
0
100
AcDbBlockEnd
  0
BLOCK
  5
D
330
C
100
AcDbEntity
 67
     1
  8
0
100
AcDbBlockBegin
  2
*Paper_Space
 70
     0
 10
0.0
 20
0.0
 30
0.0
  3
*Paper_Space
  1

  0
ENDBLK
  5
E
330
C
100
AcDbEntity
 67
     1
  8
0
100
AcDbBlockEnd
  0
BLOCK
  5
2256
330
224C
100
AcDbEntity
  8
0
100
AcDbBlockBegin
  2
*D0
 70
     1
 10
0.0
 20
0.0
 30
0.0
  3
*D0
  1

  0
LINE
  5
224D
330
224C
100
AcDbEntity
  8
0
 62
     0
370
    -2
100
AcDbLine
 10
1179.700515673406
 20
575.4659934681361
 30
0.0
 11
1173.743865061786
 21
575.4659934681361
 31
0.0
  0
LINE
  5
224E
330
224C
100
AcDbEntity
  8
0
 62
     0
370
    -2
100
AcDbLine
 10
1179.700515673404
 20
593.4580834681383
 30
0.0
 11
1173.743865061786
 21
593.4580834681383
 31
0.0
  0
LINE
  5
224F
330
224C
100
AcDbEntity
  8
0
 62
     0
370
    -2
100
AcDbLine
 10
1173.943865061787
 20
575.6659934681362
 30
0.0
 11
1173.943865061787
 21
593.2580834681382
 31
0.0
  0
SOLID
  5
2250
330
224C
100
AcDbEntity
  8
0
 62
     0
100
AcDbTrace
 10
1173.910531728453
 20
575.6659934681362
 30
0.0
 11
1173.97719839512
 21
575.6659934681362
 31
0.0
 12
1173.943865061787
 22
575.4659934681361
 32
0.0
 13
1173.943865061787
 23
575.4659934681361
 33
0.0
  0
SOLID
  5
2251
330
224C
100
AcDbEntity
  8
0
 62
     0
100
AcDbTrace
 10
1173.910531728453
 20
593.2580834681382
 30
0.0
 11
1173.97719839512
 21
593.2580834681382
 31
0.0
 12
1173.943865061787
 22
593.4580834681383
 32
0.0
 13
1173.943865061787
 23
593.4580834681383
 33
0.0
  0
MTEXT
  5
2252
330
224C
100
AcDbEntity
  8
0
 62
     0
100
AcDbMText
 10
1173.697015061786
 20
584.4620384681372
 30
0.0
 40
0.3937
 41
0.0
 71
     5
 72
     1
  1
\A1;17.9921
  7
\U+C2A4\U+D0C0\U+C77C2
 11
0.0000000000000001
 21
1.0
 31
0.0
 73
     1
 44
1.0
  0
POINT
  5
2253
330
224C
100
AcDbEntity
  8
Defpoints
 62
     0
100
AcDbPoint
 10
1179.800515673406
 20
575.4659934681361
 30
0.0
  0
POINT
  5
2254
330
224C
100
AcDbEntity
  8
Defpoints
 62
     0
100
AcDbPoint
 10
1179.800515673404
 20
593.4580834681383
 30
0.0
  0
POINT
  5
2255
330
224C
100
AcDbEntity
  8
Defpoints
 62
     0
100
AcDbPoint
 10
1173.943865061787
 20
593.4580834681383
 30
0.0
  0
ENDBLK
  5
2257
330
224C
100
AcDbEntity
  8
0
100
AcDbBlockEnd
  0
BLOCK
  5
2263
330
2259
100
AcDbEntity
  8
0
100
AcDbBlockBegin
  2
*D1
 70
     1
 10
0.0
 20
0.0
 30
0.0
  3
*D1
  1

  0
LINE
  5
225A
330
2259
100
AcDbEntity
  8
0
 62
     0
370
    -2
100
AcDbLine
 10
1179.700515673406
 20
575.2297734681361
 30
0.0
 11
1173.066326260332
 21
575.2297734681361
 31
0.0
  0
LINE
  5
225B
330
2259
100
AcDbEntity
  8
0
 62
     0
370
    -2
100
AcDbLine
 10
1179.700515673404
 20
593.6943034681385
 30
0.0
 11
1173.066326260332
 21
593.6943034681385
 31
0.0
  0
LINE
  5
225C
330
2259
100
AcDbEntity
  8
0
 62
     0
370
    -2
100
AcDbLine
 10
1173.266326260333
 20
575.4297734681362
 30
0.0
 11
1173.266326260333
 21
593.4943034681382
 31
0.0
  0
SOLID
  5
225D
330
2259
100
AcDbEntity
  8
0
 62
     0
100
AcDbTrace
 10
1173.232992926999
 20
575.4297734681362
 30
0.0
 11
1173.299659593666
 21
575.4297734681362
 31
0.0
 12
1173.266326260333
 22
575.2297734681361
 32
0.0
 13
1173.266326260333
 23
575.2297734681361
 33
0.0
  0
SOLID
  5
225E
330
2259
100
AcDbEntity
  8
0
 62
     0
100
AcDbTrace
 10
1173.232992926999
 20
593.4943034681382
 30
0.0
 11
1173.299659593666
 21
593.4943034681382
 31
0.0
 12
1173.266326260333
 22
593.6943034681385
 32
0.0
 13
1173.266326260333
 23
593.6943034681385
 33
0.0
  0
MTEXT
  5
225F
330
2259
100
AcDbEntity
  8
0
 62
     0
100
AcDbMText
 10
1173.019476260332
 20
584.4620384681372
 30
0.0
 40
0.3937
 41
0.0
 71
     5
 72
     1
  1
\A1;18.4645
  7
\U+C2A4\U+D0C0\U+C77C2
 11
0.0000000000000001
 21
1.0
 31
0.0
 73
     1
 44
1.0
  0
POINT
  5
2260
330
2259
100
AcDbEntity
  8
Defpoints
 62
     0
100
AcDbPoint
 10
1179.800515673406
 20
575.2297734681361
 30
0.0
  0
POINT
  5
2261
330
2259
100
AcDbEntity
  8
Defpoints
 62
     0
100
AcDbPoint
 10
1179.800515673404
 20
593.6943034681385
 30
0.0
  0
POINT
  5
2262
330
2259
100
AcDbEntity
  8
Defpoints
 62
     0
100
AcDbPoint
 10
1173.266326260333
 20
593.6943034681385
 30
0.0
  0
ENDBLK
  5
2264
330
2259
100
AcDbEntity
  8
0
100
AcDbBlockEnd
  0
BLOCK
  5
226C
330
2266
100
AcDbEntity
  8
0
100
AcDbBlockBegin
  2
*D2
 70
     1
 10
0.0
 20
0.0
 30
0.0
  3
*D2
  1

  0
LINE
  5
2267
330
2266
100
AcDbEntity
  8
0
 62
     0
370
    -2
100
AcDbLine
 10
1178.625974439769
 20
590.2675150348967
 30
0.0
 11
1176.335900458753
 21
592.4260601500342
 31
0.0
  0
MTEXT
  5
2268
330
2266
100
AcDbEntity
  8
0
 62
     0
100
AcDbMText
 10
1177.899423354794
 20
591.2915588100465
 30
0.0
 40
0.3937
 41
0.0
 71
     5
 72
     1
  1
\A1;R3.2283
  7
\U+C2A4\U+D0C0\U+C77C2
 11
0.727695266087407
 21
-0.685900575676955
 31
0.0
 73
     1
 44
1.0
  0
SOLID
  5
2269
330
2266
100
AcDbEntity
  8
0
 62
     0
100
AcDbTrace
 10
1176.358763811275
 20
592.4503166589037
 30
0.0
 11
1176.31303710623
 21
592.4018036411647
 31
0.0
 12
1176.190361405535
 22
592.5632402651696
 32
0.0
 13
1176.190361405535
 23
592.5632402651696
 33
0.0
  0
POINT
  5
226A
330
2266
100
AcDbEntity
  8
Defpoints
 62
     0
100
AcDbPoint
 10
1176.190361405535
 20
592.5632402651696
 30
0.0
  0
POINT
  5
226B
330
2266
100
AcDbEntity
  8
Defpoints
 62
     0
100
AcDbPoint
 10
1178.539609140856
 20
590.3489200006887
 30
0.0
  0
ENDBLK
  5
226D
330
2266
100
AcDbEntity
  8
0
100
AcDbBlockEnd
  0
BLOCK
  5
2275
330
226F
100
AcDbEntity
  8
0
100
AcDbBlockBegin
  2
*D3
 70
     1
 10
0.0
 20
0.0
 30
0.0
  3
*D3
  1

  0
LINE
  5
2270
330
226F
100
AcDbEntity
  8
0
 62
     0
370
    -2
100
AcDbLine
 10
1179.34928118996
 20
590.6864868467595
 30
0.0
 11
1179.171378233241
 21
593.4742494488776
 31
0.0
  0
MTEXT
  5
2271
330
226F
100
AcDbEntity
  8
0
 62
     0
100
AcDbMText
 10
1179.513047213601
 20
591.9962920710627
 30
0.0
 40
0.3937
 41
0.0
 71
     5
 72
     1
  1
\A1;R10.0787
  7
\U+C2A4\U+D0C0\U+C77C2
 11
0.0636861293936349
 21
-0.9979699779667008
 31
0.0
 73
     1
 44
1.0
  0
SOLID
  5
2272
330
226F
100
AcDbEntity
  8
0
 62
     0
100
AcDbTrace
 10
1179.204643899173
 20
593.4763723198574
 30
0.0
 11
1179.138112567309
 21
593.4721265778977
 31
0.0
 12
1179.158641007362
 22
593.673843444471
 32
0.0
 13
1179.158641007362
 23
593.673843444471
 33
0.0
  0
POINT
  5
2273
330
226F
100
AcDbEntity
  8
Defpoints
 62
     0
100
AcDbPoint
 10
1179.158641007362
 20
593.673843444471
 30
0.0
  0
POINT
  5
2274
330
226F
100
AcDbEntity
  8
Defpoints
 62
     0
100
AcDbPoint
 10
1179.800515673405
 20
583.6155834681386
 30
0.0
  0
ENDBLK
  5
2276
330
226F
100
AcDbEntity
  8
0
100
AcDbBlockEnd
  0
BLOCK
  5
227E
330
2278
100
AcDbEntity
  8
0
100
AcDbBlockBegin
  2
*D4
 70
     1
 10
0.0
 20
0.0
 30
0.0
  3
*D4
  1

  0
LINE
  5
2279
330
2278
100
AcDbEntity
  8
0
 62
     0
370
    -2
100
AcDbLine
 10
1178.199751026039
 20
589.5017822796037
 30
0.0
 11
1175.411085072119
 21
589.6649140828206
 31
0.0
  0
MTEXT
  5
227A
330
2278
100
AcDbEntity
  8
0
 62
     0
100
AcDbMText
 10
1176.919663009647
 20
589.8239370660027
 30
0.0
 40
0.3937
 41
0.0
 71
     5
 72
     1
  1
\A1;R10.0787
  7
\U+C2A4\U+D0C0\U+C77C2
 11
0.9982933620231248
 21
-0.0583983162476998
 31
0.0
 73
     1
 44
1.0
  0
SOLID
  5
227B
330
2278
100
AcDbEntity
  8
0
 62
     0
100
AcDbTrace
 10
1175.41303168266
 20
589.6981905282212
 30
0.0
 11
1175.409138461577
 21
589.6316376374199
 31
0.0
 12
1175.211426399714
 22
589.6765937460702
 32
0.0
 13
1175.211426399714
 23
589.6765937460702
 33
0.0
  0
POINT
  5
227C
330
2278
100
AcDbEntity
  8
Defpoints
 62
     0
100
AcDbPoint
 10
1175.211426399714
 20
589.6765937460702
 30
0.0
  0
POINT
  5
227D
330
2278
100
AcDbEntity
  8
Defpoints
 62
     0
100
AcDbPoint
 10
1185.272945673404
 20
589.0880134681379
 30
0.0
  0
ENDBLK
  5
227F
330
2278
100
AcDbEntity
  8
0
100
AcDbBlockEnd
  0
BLOCK
  5
2287
330
2281
100
AcDbEntity
  8
0
100
AcDbBlockBegin
  2
*D5
 70
     1
 10
0.0
 20
0.0
 30
0.0
  3
*D5
  1

  0
LINE
  5
2282
330
2281
100
AcDbEntity
  8
0
 62
     0
370
    -2
100
AcDbLine
 10
1208.86623647803
 20
588.4537407396509
 30
0.0
 11
1208.948049342628
 21
591.2459757661062
 31
0.0
  0
MTEXT
  5
2283
330
2281
100
AcDbEntity
  8
0
 62
     0
100
AcDbMText
 10
1208.657470045608
 20
589.7571307859549
 30
0.0
 40
0.3937
 41
0.0
 71
     5
 72
     1
  1
\A1;R10.0787
  7
\U+C2A4\U+D0C0\U+C77C2
 11
0.0292875665301021
 21
0.9995710272145471
 31
0.0
 73
     1
 44
1.0
  0
SOLID
  5
2284
330
2281
100
AcDbEntity
  8
0
 62
     0
100
AcDbTrace
 10
1208.914730308388
 20
591.2469520183239
 30
0.0
 11
1208.981368376868
 21
591.2449995138882
 31
0.0
 12
1208.953906855934
 22
591.4458899715491
 32
0.0
 13
1208.953906855934
 23
591.4458899715491
 33
0.0
  0
POINT
  5
2285
330
2281
100
AcDbEntity
  8
Defpoints
 62
     0
100
AcDbPoint
 10
1208.953906855934
 20
591.4458899715491
 30
0.0
  0
POINT
  5
2286
330
2281
100
AcDbEntity
  8
Defpoints
 62
     0
100
AcDbPoint
 10
1208.658725673396
 20
581.3714934681412
 30
0.0
  0
ENDBLK
  5
2288
330
2281
100
AcDbEntity
  8
0
100
AcDbBlockEnd
  0
BLOCK
  5
2290
330
228A
100
AcDbEntity
  8
0
100
AcDbBlockBegin
  2
*D6
 70
     1
 10
0.0
 20
0.0
 30
0.0
  3
*D6
  1

  0
LINE
  5
228B
330
228A
100
AcDbEntity
  8
0
 62
     0
370
    -2
100
AcDbLine
 10
1210.180218304929
 20
588.3620330034292
 30
0.0
 11
1212.07493702647
 21
590.2321532686105
 31
0.0
  0
MTEXT
  5
228C
330
228A
100
AcDbEntity
  8
0
 62
     0
100
AcDbMText
 10
1210.88300135302
 20
589.4025319797932
 30
0.0
 40
0.3937
 41
0.0
 71
     5
 72
     1
  1
\A1;R3.2283
  7
\U+C2A4\U+D0C0\U+C77C2
 11
0.7117116375708218
 21
0.7024717396068394
 31
0.0
 73
     1
 44
1.0
  0
SOLID
  5
228D
330
228A
100
AcDbEntity
  8
0
 62
     0
100
AcDbTrace
 10
1212.051521301816
 20
590.2558769898629
 30
0.0
 11
1212.098352751123
 21
590.2084295473582
 31
0.0
 12
1212.217279353984
 22
590.3726476165319
 32
0.0
 13
1212.217279353984
 23
590.3726476165319
 33
0.0
  0
POINT
  5
228E
330
228A
100
AcDbEntity
  8
Defpoints
 62
     0
100
AcDbPoint
 10
1212.217279353984
 20
590.3726476165319
 30
0.0
  0
POINT
  5
228F
330
228A
100
AcDbEntity
  8
Defpoints
 62
     0
100
AcDbPoint
 10
1209.919632205948
 20
588.1048300006892
 30
0.0
  0
ENDBLK
  5
2291
330
228A
100
AcDbEntity
  8
0
100
AcDbBlockEnd
  0
BLOCK
  5
2299
330
2293
100
AcDbEntity
  8
0
100
AcDbBlockBegin
  2
*D7
 70
     1
 10
0.0
 20
0.0
 30
0.0
  3
*D7
  1

  0
LINE
  5
2294
330
2293
100
AcDbEntity
  8
0
 62
     0
370
    -2
100
AcDbLine
 10
1210.2635157832
 20
587.18192149512
 30
0.0
 11
1213.053768809245
 21
587.3151800349054
 31
0.0
  0
MTEXT
  5
2295
330
2293
100
AcDbEntity
  8
0
 62
     0
100
AcDbMText
 10
1211.546980360558
 20
587.4903493064136
 30
0.0
 40
0.3937
 41
0.0
 71
     5
 72
     1
  1
\A1;R10.0787
  7
\U+C2A4\U+D0C0\U+C77C2
 11
0.998861505928702
 21
0.0477042133762343
 31
0.0
 73
     1
 44
1.0
  0
SOLID
  5
2296
330
2293
100
AcDbEntity
  8
0
 62
     0
100
AcDbTrace
 10
1213.052178668799
 20
587.3484754184365
 30
0.0
 11
1213.055358949691
 21
587.2818846513746
 31
0.0
 12
1213.25354111043
 22
587.3247208775807
 32
0.0
 13
1213.25354111043
 23
587.3247208775807
 33
0.0
  0
POINT
  5
2297
330
2293
100
AcDbEntity
  8
Defpoints
 62
     0
100
AcDbPoint
 10
1213.25354111043
 20
587.3247208775807
 30
0.0
  0
POINT
  5
2298
330
2293
100
AcDbEntity
  8
Defpoints
 62
     0
100
AcDbPoint
 10
1203.186295673396
 20
586.8439234681415
 30
0.0
  0
ENDBLK
  5
229A
330
2293
100
AcDbEntity
  8
0
100
AcDbBlockEnd
  0
BLOCK
  5
22A6
330
229C
100
AcDbEntity
  8
0
100
AcDbBlockBegin
  2
*D8
 70
     1
 10
0.0
 20
0.0
 30
0.0
  3
*D8
  1

  0
LINE
  5
229D
330
229C
100
AcDbEntity
  8
0
 62
     0
370
    -2
100
AcDbLine
 10
1208.758725673398
 20
575.4659934681412
 30
0.0
 11
1214.33368022802
 21
575.4659934681412
 31
0.0
  0
LINE
  5
229E
330
229C
100
AcDbEntity
  8
0
 62
     0
370
    -2
100
AcDbLine
 10
1208.758725673396
 20
591.2139934681412
 30
0.0
 11
1214.33368022802
 21
591.2139934681412
 31
0.0
  0
LINE
  5
229F
330
229C
100
AcDbEntity
  8
0
 62
     0
370
    -2
100
AcDbLine
 10
1214.13368022802
 20
575.6659934681412
 30
0.0
 11
1214.13368022802
 21
591.0139934681413
 31
0.0
  0
SOLID
  5
22A0
330
229C
100
AcDbEntity
  8
0
 62
     0
100
AcDbTrace
 10
1214.100346894687
 20
575.6659934681412
 30
0.0
 11
1214.167013561353
 21
575.6659934681412
 31
0.0
 12
1214.13368022802
 22
575.4659934681412
 32
0.0
 13
1214.13368022802
 23
575.4659934681412
 33
0.0
  0
SOLID
  5
22A1
330
229C
100
AcDbEntity
  8
0
 62
     0
100
AcDbTrace
 10
1214.100346894687
 20
591.0139934681413
 30
0.0
 11
1214.167013561353
 21
591.0139934681413
 31
0.0
 12
1214.13368022802
 22
591.2139934681412
 32
0.0
 13
1214.13368022802
 23
591.2139934681412
 33
0.0
  0
MTEXT
  5
22A2
330
229C
100
AcDbEntity
  8
0
 62
     0
100
AcDbMText
 10
1213.88683022802
 20
583.3399934681414
 30
0.0
 40
0.3937
 41
0.0
 71
     5
 72
     1
  1
\A1;15.748
  7
\U+C2A4\U+D0C0\U+C77C2
 11
0.0000000000000001
 21
1.0
 31
0.0
 73
     1
 44
1.0
  0
POINT
  5
22A3
330
229C
100
AcDbEntity
  8
Defpoints
 62
     0
100
AcDbPoint
 10
1208.658725673398
 20
575.4659934681412
 30
0.0
  0
POINT
  5
22A4
330
229C
100
AcDbEntity
  8
Defpoints
 62
     0
100
AcDbPoint
 10
1208.658725673396
 20
591.2139934681412
 30
0.0
  0
POINT
  5
22A5
330
229C
100
AcDbEntity
  8
Defpoints
 62
     0
100
AcDbPoint
 10
1214.13368022802
 20
591.2139934681412
 30
0.0
  0
ENDBLK
  5
22A7
330
229C
100
AcDbEntity
  8
0
100
AcDbBlockEnd
  0
BLOCK
  5
22B3
330
22A9
100
AcDbEntity
  8
0
100
AcDbBlockBegin
  2
*D9
 70
     1
 10
0.0
 20
0.0
 30
0.0
  3
*D9
  1

  0
LINE
  5
22AA
330
22A9
100
AcDbEntity
  8
0
 62
     0
370
    -2
100
AcDbLine
 10
1208.758725673396
 20
575.2297734681413
 30
0.0
 11
1215.030604075638
 21
575.2297734681413
 31
0.0
  0
LINE
  5
22AB
330
22A9
100
AcDbEntity
  8
0
 62
     0
370
    -2
100
AcDbLine
 10
1208.758725673396
 20
591.4502134681412
 30
0.0
 11
1215.030604075638
 21
591.4502134681412
 31
0.0
  0
LINE
  5
22AC
330
22A9
100
AcDbEntity
  8
0
 62
     0
370
    -2
100
AcDbLine
 10
1214.830604075638
 20
575.4297734681411
 30
0.0
 11
1214.830604075638
 21
591.2502134681412
 31
0.0
  0
SOLID
  5
22AD
330
22A9
100
AcDbEntity
  8
0
 62
     0
100
AcDbTrace
 10
1214.797270742304
 20
575.4297734681411
 30
0.0
 11
1214.863937408971
 21
575.4297734681411
 31
0.0
 12
1214.830604075638
 22
575.2297734681413
 32
0.0
 13
1214.830604075638
 23
575.2297734681413
 33
0.0
  0
SOLID
  5
22AE
330
22A9
100
AcDbEntity
  8
0
 62
     0
100
AcDbTrace
 10
1214.797270742304
 20
591.2502134681412
 30
0.0
 11
1214.863937408971
 21
591.2502134681412
 31
0.0
 12
1214.830604075638
 22
591.4502134681412
 32
0.0
 13
1214.830604075638
 23
591.4502134681412
 33
0.0
  0
MTEXT
  5
22AF
330
22A9
100
AcDbEntity
  8
0
 62
     0
100
AcDbMText
 10
1214.583754075637
 20
583.3399934681414
 30
0.0
 40
0.3937
 41
0.0
 71
     5
 72
     1
  1
\A1;16.2204
  7
\U+C2A4\U+D0C0\U+C77C2
 11
0.0000000000000001
 21
1.0
 31
0.0
 73
     1
 44
1.0
  0
POINT
  5
22B0
330
22A9
100
AcDbEntity
  8
Defpoints
 62
     0
100
AcDbPoint
 10
1208.658725673396
 20
575.2297734681413
 30
0.0
  0
POINT
  5
22B1
330
22A9
100
AcDbEntity
  8
Defpoints
 62
     0
100
AcDbPoint
 10
1208.658725673396
 20
591.4502134681412
 30
0.0
  0
POINT
  5
22B2
330
22A9
100
AcDbEntity
  8
Defpoints
 62
     0
100
AcDbPoint
 10
1214.830604075638
 20
591.4502134681412
 30
0.0
  0
ENDBLK
  5
22B4
330
22A9
100
AcDbEntity
  8
0
100
AcDbBlockEnd
  0
BLOCK
  5
22C0
330
22B6
100
AcDbEntity
  8
0
100
AcDbBlockBegin
  2
*D10
 70
     1
 10
0.0
 20
0.0
 30
0.0
  3
*D10
  1

  0
LINE
  5
22B7
330
22B6
100
AcDbEntity
  8
0
 62
     0
370
    -2
100
AcDbLine
 10
1175.430445673404
 20
579.7360634681457
 30
0.0
 11
1175.430445673404
 21
574.2209523708867
 31
0.0
  0
LINE
  5
22B8
330
22B6
100
AcDbEntity
  8
0
 62
     0
370
    -2
100
AcDbLine
 10
1213.028795673396
 20
579.7360634681409
 30
0.0
 11
1213.028795673396
 21
574.2209523708867
 31
0.0
  0
LINE
  5
22B9
330
22B6
100
AcDbEntity
  8
0
 62
     0
370
    -2
100
AcDbLine
 10
1175.630445673404
 20
574.4209523708867
 30
0.0
 11
1212.828795673396
 21
574.4209523708867
 31
0.0
  0
SOLID
  5
22BA
330
22B6
100
AcDbEntity
  8
0
 62
     0
100
AcDbTrace
 10
1175.630445673404
 20
574.45428570422
 30
0.0
 11
1175.630445673404
 21
574.3876190375535
 31
0.0
 12
1175.430445673404
 22
574.4209523708867
 32
0.0
 13
1175.430445673404
 23
574.4209523708867
 33
0.0
  0
SOLID
  5
22BB
330
22B6
100
AcDbEntity
  8
0
 62
     0
100
AcDbTrace
 10
1212.828795673396
 20
574.45428570422
 30
0.0
 11
1212.828795673396
 21
574.3876190375535
 31
0.0
 12
1213.028795673396
 22
574.4209523708867
 32
0.0
 13
1213.028795673396
 23
574.4209523708867
 33
0.0
  0
MTEXT
  5
22BC
330
22B6
100
AcDbEntity
  8
0
 62
     0
100
AcDbMText
 10
1194.2296206734
 20
574.6678023708867
 30
0.0
 40
0.3937
 41
0.0
 71
     5
 72
     1
  1
\A1;37.5983
  7
\U+C2A4\U+D0C0\U+C77C2
 73
     1
 44
1.0
  0
POINT
  5
22BD
330
22B6
100
AcDbEntity
  8
Defpoints
 62
     0
100
AcDbPoint
 10
1175.430445673404
 20
579.8360634681457
 30
0.0
  0
POINT
  5
22BE
330
22B6
100
AcDbEntity
  8
Defpoints
 62
     0
100
AcDbPoint
 10
1213.028795673396
 20
579.8360634681412
 30
0.0
  0
POINT
  5
22BF
330
22B6
100
AcDbEntity
  8
Defpoints
 62
     0
100
AcDbPoint
 10
1213.028795673396
 20
574.4209523708867
 30
0.0
  0
ENDBLK
  5
22C1
330
22B6
100
AcDbEntity
  8
0
100
AcDbBlockEnd
  0
BLOCK
  5
22CD
330
22C3
100
AcDbEntity
  8
0
100
AcDbBlockBegin
  2
*D11
 70
     1
 10
0.0
 20
0.0
 30
0.0
  3
*D11
  1

  0
LINE
  5
22C4
330
22C3
100
AcDbEntity
  8
0
 62
     0
370
    -2
100
AcDbLine
 10
1175.194225673404
 20
579.7360634681457
 30
0.0
 11
1175.194225673404
 21
573.3852720668362
 31
0.0
  0
LINE
  5
22C5
330
22C3
100
AcDbEntity
  8
0
 62
     0
370
    -2
100
AcDbLine
 10
1213.265015673396
 20
579.7360634681409
 30
0.0
 11
1213.265015673396
 21
573.3852720668362
 31
0.0
  0
LINE
  5
22C6
330
22C3
100
AcDbEntity
  8
0
 62
     0
370
    -2
100
AcDbLine
 10
1175.394225673404
 20
573.5852720668362
 30
0.0
 11
1213.065015673396
 21
573.5852720668362
 31
0.0
  0
SOLID
  5
22C7
330
22C3
100
AcDbEntity
  8
0
 62
     0
100
AcDbTrace
 10
1175.394225673404
 20
573.6186054001696
 30
0.0
 11
1175.394225673404
 21
573.5519387335028
 31
0.0
 12
1175.194225673404
 22
573.5852720668362
 32
0.0
 13
1175.194225673404
 23
573.5852720668362
 33
0.0
  0
SOLID
  5
22C8
330
22C3
100
AcDbEntity
  8
0
 62
     0
100
AcDbTrace
 10
1213.065015673396
 20
573.6186054001696
 30
0.0
 11
1213.065015673396
 21
573.5519387335028
 31
0.0
 12
1213.265015673396
 22
573.5852720668362
 32
0.0
 13
1213.265015673396
 23
573.5852720668362
 33
0.0
  0
MTEXT
  5
22C9
330
22C3
100
AcDbEntity
  8
0
 62
     0
100
AcDbMText
 10
1194.2296206734
 20
573.8321220668362
 30
0.0
 40
0.3937
 41
0.0
 71
     5
 72
     1
  1
\A1;38.0708
  7
\U+C2A4\U+D0C0\U+C77C2
 73
     1
 44
1.0
  0
POINT
  5
22CA
330
22C3
100
AcDbEntity
  8
Defpoints
 62
     0
100
AcDbPoint
 10
1175.194225673404
 20
579.836063468146
 30
0.0
  0
POINT
  5
22CB
330
22C3
100
AcDbEntity
  8
Defpoints
 62
     0
100
AcDbPoint
 10
1213.265015673396
 20
579.8360634681412
 30
0.0
  0
POINT
  5
22CC
330
22C3
100
AcDbEntity
  8
Defpoints
 62
     0
100
AcDbPoint
 10
1213.265015673396
 20
573.5852720668362
 30
0.0
  0
ENDBLK
  5
22CE
330
22C3
100
AcDbEntity
  8
0
100
AcDbBlockEnd
  0
BLOCK
  5
22D6
330
22D0
100
AcDbEntity
  8
0
100
AcDbBlockBegin
  2
*D12
 70
     1
 10
0.0
 20
0.0
 30
0.0
  3
*D12
  1

  0
LINE
  5
22D1
330
22D0
100
AcDbEntity
  8
0
 62
     0
370
    -2
100
AcDbLine
 10
1191.515228452417
 20
594.4247159619679
 30
0.0
 11
1189.574248010594
 21
591.7581810701267
 31
0.0
  0
MTEXT
  5
22D2
330
22D0
100
AcDbEntity
  8
0
 62
     0
100
AcDbMText
 10
1190.610450899616
 20
593.6011776077607
 30
0.0
 40
0.3937
 41
0.0
 71
     5
 72
     1
  1
\A1;R0.7638
  7
\U+C2A4\U+D0C0\U+C77C2
 11
0.5885052708457775
 21
0.8084933804223373
 31
0.0
 73
     1
 44
1.0
  0
SOLID
  5
22D3
330
22D0
100
AcDbEntity
  8
0
 62
     0
100
AcDbTrace
 10
1189.547298231247
 20
591.7777979124885
 30
0.0
 11
1189.601197789942
 21
591.7385642277653
 31
0.0
 12
1189.456546956425
 22
591.5964823940424
 32
0.0
 13
1189.456546956425
 23
591.5964823940424
 33
0.0
  0
POINT
  5
22D4
330
22D0
100
AcDbEntity
  8
Defpoints
 62
     0
100
AcDbPoint
 10
1189.456546956425
 20
591.5964823940424
 30
0.0
  0
POINT
  5
22D5
330
22D0
100
AcDbEntity
  8
Defpoints
 62
     0
100
AcDbPoint
 10
1189.906035512192
 20
592.213993468141
 30
0.0
  0
ENDBLK
  5
22D7
330
22D0
100
AcDbEntity
  8
0
100
AcDbBlockEnd
  0
ENDSEC
  0
SECTION
  2
ENTITIES
  0
POINT
  5
37C
330
2
100
AcDbEntity
  8
0
 60
     1
100
AcDbPoint
 10
170.4737662487822
 20
-90.83440570086338
 30
0.0
1001
GENIUS_GENOBJ-N-TIT_13
1002
{
1000
OWNER
1000
GEN
1002
}
1001
GENIUS_GENOENT_13
1002
{
1000
MYREF
1005
37C
1002
}
1002
{
1000
GRP
1005
0
1002
}
1001
GENIUS_GENOLIS_13
1002
{
1000
ENT
1005
0
1005
0
1002
}
1001
GENIUS_GENTITLE_13
1002
{
1000
SCALE
1000
1:1
1002
}
1002
{
1000
BORDER
1000
GEN_A1
1002
}
1002
{
1000
TITLE
1000
GENTITLE
1002
}
1002
{
1000
UNCHG
1002
{
1000
GEN-TITLE-SCA
1000
GEN-TITLE-SIZ
1002
}
1002
}
1002
{
1000
HRA
1005
0
1002
}
1002
{
1000
HTIT
1005
0
1002
}
1002
{
1000
GENIUSID
1005
37C
1002
}
1001
GENIUS_GENODEF_13
1002
{
1000
HIER
1070
     1
1002
}
1002
{
1000
MANEDIT
1070
     0
1002
}
1002
{
1000
NOSEL
1070
     0
1002
}
1002
{
1000
BEHIND
1070
     0
1002
}
1002
{
1000
REACTOR
1002
}
  0
TEXT
  5
384
330
2
100
AcDbEntity
  8
0
 60
     1
100
AcDbText
 10
830.9999999999996
 20
-52.92726755347096
 30
0.0
 40
3.5
  1
!GENTITLE-INSERT
100
AcDbText
  0
TEXT
  5
385
330
2
100
AcDbEntity
  8
0
 60
     1
100
AcDbText
 10
10.0
 20
-47.92726755347096
 30
0.0
 40
3.5
  1
!GENTITLE-LL
100
AcDbText
  0
TEXT
  5
386
330
2
100
AcDbEntity
  8
0
 60
     1
100
AcDbText
 10
831.0
 20
526.072732446529
 30
0.0
 40
3.5
  1
!GENTITLE-RU
100
AcDbText
  0
TEXT
  5
387
330
2
100
AcDbEntity
  8
0
 60
     1
100
AcDbText
 10
841.0
 20
536.0727324465289
 30
0.0
 40
3.5
  1
!GENTITLE-MAX
100
AcDbText
  0
TEXT
  5
3FA
330
2
100
AcDbEntity
  8
0
 60
     1
100
AcDbText
 10
684.8812705983662
 20
141.8068575944205
 30
0.0
 40
3.5
  1
!GENTITLE-INSERT
100
AcDbText
  0
TEXT
  5
3FB
330
2
100
AcDbEntity
  8
0
 60
     1
100
AcDbText
 10
-136.1187294016335
 20
146.8068575944205
 30
0.0
 40
3.5
  1
!GENTITLE-LL
100
AcDbText
  0
TEXT
  5
3FC
330
2
100
AcDbEntity
  8
0
 60
     1
100
AcDbText
 10
684.8812705983664
 20
720.8068575944203
 30
0.0
 40
3.5
  1
!GENTITLE-RU
100
AcDbText
  0
TEXT
  5
3FD
330
2
100
AcDbEntity
  8
0
 60
     1
100
AcDbText
 10
694.8812705983664
 20
730.8068575944203
 30
0.0
 40
3.5
  1
!GENTITLE-MAX
100
AcDbText
  0
LINE
  5
204A
330
2
100
AcDbEntity
  8
\U+7C97\U+5B9E\U+7EBF
100
AcDbLine
 10
1213.028795673396
 20
586.8439234681414
 30
0.0
 11
1213.028795673401
 21
583.3399934681413
 31
0.0
  0
LINE
  5
2063
330
2
100
AcDbEntity
  8
\U+7C97\U+5B9E\U+7EBF
100
AcDbLine
 10
1185.115465673404
 20
593.4580834681383
 30
0.0
 11
1182.457990673404
 21
593.4580834681383
 31
0.0
  0
LINE
  5
2070
330
2
100
AcDbEntity
  8
\U+7C97\U+5B9E\U+7EBF
100
AcDbLine
 10
1189.906035512192
 20
591.2139934681412
 30
0.0
 11
1208.658725673396
 21
591.2139934681412
 31
0.0
  0
ARC
  5
207D
330
2
100
AcDbEntity
  8
\U+6807\U+6CE8\U+7EBF
 48
3.0
100
AcDbCircle
 10
1185.115465673404
 20
583.6155834681383
 30
0.0
 40
9.842499999999999
100
AcDbArc
 50
79.39344895814352
 51
90.0
  0
ARC
  5
207F
330
2
100
AcDbEntity
  8
\U+6807\U+6CE8\U+7EBF
 48
3.0
100
AcDbCircle
 10
1186.376372205956
 20
590.3489200006886
 30
0.0
 40
2.992119999999999
100
AcDbArc
 50
27.85196502471008
 51
79.39344895814352
  0
LINE
  5
209A
330
2
100
AcDbEntity
  8
\U+7C97\U+5B9E\U+7EBF
100
AcDbLine
 10
1175.3679
 20
584.4620384681361
 30
0.0
 11
1175.3679
 21
589.0880134681382
 31
0.0
  0
LINE
  5
209B
330
2
100
AcDbEntity
  8
\U+7C97\U+5B9E\U+7EBF
100
AcDbLine
 10
1179.73796925479
 20
593.4580807061967
 30
0.0
 11
1182.457990673408
 21
593.4580834681383
 31
0.0
  0
ARC
  5
209C
330
2
100
AcDbEntity
  8
\U+6807\U+6CE8\U+7EBF
 48
3.0
100
AcDbCircle
 10
1179.737967858224
 20
583.6156108612003
 30
0.0
 40
9.84246984499633
100
AcDbArc
 50
89.99999187020161
 51
100.6065731592531
  0
ARC
  5
209D
330
2
100
AcDbEntity
  8
\U+6807\U+6CE8\U+7EBF
 48
3.0
100
AcDbCircle
 10
1185.210410909647
 20
589.0880112201744
 30
0.0
 40
9.842510909647707
100
AcDbArc
 50
169.393451899454
 51
179.9999869140262
  0
ARC
  5
209E
330
2
100
AcDbEntity
  8
\U+6807\U+6CE8\U+7EBF
 48
3.0
100
AcDbCircle
 10
1178.477063133952
 20
590.3489170690201
 30
0.0
 40
2.992119984445502
100
AcDbArc
 50
100.6065509496822
 51
169.3934061356593
  0
LINE
  5
209F
330
2
100
AcDbEntity
  8
\U+7C97\U+5B9E\U+7EBF
100
AcDbLine
 10
1175.3679
 20
584.4620384681383
 30
0.0
 11
1175.3679
 21
579.8360634681361
 31
0.0
  0
ARC
  5
20A1
330
2
100
AcDbEntity
  8
\U+6807\U+6CE8\U+7EBF
 48
3.0
100
AcDbCircle
 10
1179.737969883747
 20
585.3084944808481
 30
0.0
 40
9.842499999999995
100
AcDbArc
 50
259.3934489581435
 51
270.0
  0
ARC
  5
20A2
330
2
100
AcDbEntity
  8
\U+6807\U+6CE8\U+7EBF
 48
3.0
100
AcDbCircle
 10
1185.210370585692
 20
579.8360611296808
 30
0.0
 40
9.842470585691948
100
AcDbArc
 50
179.9999863871959
 51
190.6065632590498
  0
ARC
  5
20A3
330
2
100
AcDbEntity
  8
\U+6807\U+6CE8\U+7EBF
 48
3.0
100
AcDbCircle
 10
1178.477063351199
 20
578.5751579482977
 30
0.0
 40
2.992119999999999
100
AcDbArc
 50
190.6065510417772
 51
259.3934489581435
  0
ARC
  5
20A9
330
2
100
AcDbEntity
  8
\U+6807\U+6CE8\U+7EBF
 48
3.0
100
AcDbCircle
 10
1208.658725673396
 20
581.3714934681412
 30
0.0
 40
9.842499999999999
100
AcDbArc
 50
79.39344895814352
 51
90.0
  0
ARC
  5
20AA
330
2
100
AcDbEntity
  8
\U+6807\U+6CE8\U+7EBF
 48
3.0
100
AcDbCircle
 10
1203.186295673396
 20
586.8439234681414
 30
0.0
 40
9.842499999999999
100
AcDbArc
 50
0.0
 51
10.60655104177726
  0
ARC
  5
20AB
330
2
100
AcDbEntity
  8
\U+6807\U+6CE8\U+7EBF
 48
3.0
100
AcDbCircle
 10
1209.919632205949
 20
588.1048300006892
 30
0.0
 40
2.992119999999999
100
AcDbArc
 50
10.60655104177726
 51
79.39344895814352
  0
LINE
  5
20B1
330
2
100
AcDbEntity
  8
\U+7C97\U+5B9E\U+7EBF
100
AcDbLine
 10
1213.028795673396
 20
579.8360634681412
 30
0.0
 11
1213.028795673401
 21
583.3399934681413
 31
0.0
  0
ARC
  5
20B3
330
2
100
AcDbEntity
  8
\U+6807\U+6CE8\U+7EBF
 48
3.0
100
AcDbCircle
 10
1208.658725673396
 20
585.3084934681412
 30
0.0
 40
9.842499999999999
100
AcDbArc
 50
270.0
 51
280.6065510418565
  0
ARC
  5
20B4
330
2
100
AcDbEntity
  8
\U+6807\U+6CE8\U+7EBF
 48
3.0
100
AcDbCircle
 10
1203.186295673396
 20
579.8360634681412
 30
0.0
 40
9.842499999999999
100
AcDbArc
 50
349.3934489582227
 51
0.0
  0
ARC
  5
20B5
330
2
100
AcDbEntity
  8
\U+6807\U+6CE8\U+7EBF
 48
3.0
100
AcDbCircle
 10
1209.919632205949
 20
578.5751569355912
 30
0.0
 40
2.992119999999999
100
AcDbArc
 50
280.6065510418565
 51
349.3934489582227
  0
LINE
  5
2231
330
2
100
AcDbEntity
  8
0
100
AcDbLine
 10
1208.658725673396
 20
575.4659934681412
 30
0.0
 11
1179.737969883747
 21
575.4659944808481
 31
0.0
  0
ARC
  5
2248
330
2
100
AcDbEntity
  8
0
 48
3.0
100
AcDbCircle
 10
1189.906035512192
 20
592.213993468141
 30
0.0
 40
1.0
100
AcDbArc
 50
207.8519650247062
 51
270.0
  0
MTEXT
  5
2366
330
2
100
AcDbEntity
  8
0
100
AcDbMText
 10
1195.333537255022
 20
580.7970635560208
 30
0.0
 40
0.3937
 41
14.93397349915023
 71
     1
 72
     5
  3
{\fTimes New Roman|b0|i0|c0|p18;\H1.27x;Model : GOR-4021T   \H0.58x;IMPORTANT ! \PThis template is provided as a guide for Undermount cutout only. \PBefore beginning to cut countertop, compare physical dimension of the template and the cutout line wi
  1
th the actual sink unit for an accurate cut.\PHamatUSA is not responsible for any countertop, installation or labor charges due to failure to follow these instructions.\P\Lwww.Hamatusa.com }
  7
\U+C2A4\U+D0C0\U+C77C2
 73
     1
 44
1.0
  0
VIEWPORT
  5
74
330
C
100
AcDbEntity
 67
     1
  8
0
100
AcDbViewport
 10
490.633788896909
 20
297.0009369707932
 30
0.0
 40
1115.370256166983
 41
599.3755656108596
 68
     1
 69
     1
 12
490.633788896909
 22
297.0009369707932
 13
0.0
 23
0.0
 14
10.0
 24
10.0
 15
10.0
 25
10.0
 16
0.0
 26
0.0
 36
1.0
 17
0.0
 27
0.0
 37
0.0
 42
50.0
 43
0.0
 44
0.0
 45
599.3755656108596
 50
0.0
 51
0.0
 72
  1000
 90
    32800
  1

281
     0
 71
     1
 74
     0
110
0.0
120
0.0
130
0.0
111
1.0
121
0.0
131
0.0
112
0.0
122
1.0
132
0.0
 79
     0
146
0.0
170
     0
  0
ENDSEC
  0
SECTION
  2
OBJECTS
  0
DICTIONARY
  5
7
330
0
100
AcDbDictionary
281
     1
  3
ACAD_COLOR
350
5A3
  3
ACAD_GROUP
350
20
  3
ACAD_LAYOUT
350
B
  3
ACAD_MATERIAL
350
5A2
  3
ACAD_MLINESTYLE
350
21
  3
ACAD_PLOTSETTINGS
350
22
  3
ACAD_PLOTSTYLENAME
350
6
  3
ACAD_TABLESTYLE
350
5C3
  3
ACAD_VISUALSTYLE
350
234B
  3
AcDbVariableDictionary
350
81
  0
DICTIONARY
  5
1FA7
330
10
100
AcDbDictionary
280
     1
281
     1
  3
ACAD_LAYERSTATES
360
1FA8
  0
DICTIONARY
  5
95E
330
2
100
AcDbDictionary
280
     1
281
     1
  3
ACAD_SORTENTS
360
95F
  0
DICTIONARY
  5
5A3
102
{ACAD_REACTORS
330
7
102
}
330
7
100
AcDbDictionary
281
     1
  0
DICTIONARY
  5
20
102
{ACAD_REACTORS
330
7
102
}
330
7
100
AcDbDictionary
281
     1
  0
DICTIONARY
  5
B
102
{ACAD_REACTORS
330
7
102
}
330
7
100
AcDbDictionary
281
     1
  3
DIN A1 Title Block
350
F
  3
Model
350
A
  0
DICTIONARY
  5
5A2
102
{ACAD_REACTORS
330
7
102
}
330
7
100
AcDbDictionary
281
     1
  3
ByBlock
350
2349
  3
ByLayer
350
2348
  3
Global
350
234A
  0
DICTIONARY
  5
21
102
{ACAD_REACTORS
330
7
102
}
330
7
100
AcDbDictionary
281
     1
  3
Standard
350
23
  0
DICTIONARY
  5
22
102
{ACAD_REACTORS
330
7
102
}
330
7
100
AcDbDictionary
281
     1
  0
ACDBDICTIONARYWDFLT
  5
6
102
{ACAD_REACTORS
330
7
102
}
330
7
100
AcDbDictionary
281
     1
  3
Normal
350
5
100
AcDbDictionaryWithDefault
340
5
  0
DICTIONARY
  5
5C3
102
{ACAD_REACTORS
330
7
102
}
330
7
100
AcDbDictionary
281
     1
  3
Standard
350
5C4
  0
DICTIONARY
  5
234B
102
{ACAD_REACTORS
330
7
102
}
330
7
100
AcDbDictionary
281
     1
  3
2dWireframe
350
2351
  3
3D Hidden
350
2353
  3
3dWireframe
350
2352
  3
Basic
350
2350
  3
Brighten
350
2357
  3
ColorChange
350
235B
  3
Conceptual
350
2354
  3
Dim
350
2356
  3
Facepattern
350
235A
  3
Flat
350
234C
  3
FlatWithEdges
350
234D
  3
Gouraud
350
234E
  3
GouraudWithEdges
350
234F
  3
Linepattern
350
2359
  3
Realistic
350
2355
  3
Thicken
350
2358
  0
DICTIONARY
  5
81
102
{ACAD_REACTORS
330
7
102
}
330
7
100
AcDbDictionary
281
     1
  3
CTABLESTYLE
350
5EE
  3
DIMASSOC
350
82
  3
PROJECTNAME
350
22F1
  0
DICTIONARY
  5
1FA8
102
{ACAD_REACTORS
330
1FA7
102
}
330
1FA7
100
AcDbDictionary
281
     1
  0
SORTENTSTABLE
  5
95F
102
{ACAD_REACTORS
330
95E
102
}
330
95E
100
AcDbSortentsTable
330
2
331
3FA
  5
3FA
331
20AA
  5
223C
331
3FB
  5
3FB
331
20A9
  5
223A
331
3FC
  5
3FC
331
207D
  5
209B
331
20B1
  5
2240
331
209A
  5
20A2
331
204A
  5
204A
331
207F
  5
209D
331
3FD
  5
3FD
331
20B3
  5
2242
331
209C
  5
20AB
331
209B
  5
20A9
331
20B4
  5
2244
331
20B5
  5
2246
331
209E
  5
20B5
331
209D
  5
20B3
331
2248
  5
209E
331
209F
  5
2232
331
2231
  5
2248
331
2063
  5
2070
331
20A2
  5
2236
331
20A1
  5
2234
331
20AB
  5
223E
331
37C
  5
37C
331
2070
  5
207F
331
385
  5
385
331
384
  5
384
331
387
  5
387
331
386
  5
386
331
20A3
  5
2238
  0
LAYOUT
  5
F
102
{ACAD_REACTORS
330
B
102
}
330
B
100
AcDbPlotSettings
  1

  2
none_device
  4
ISO_A1_(841.00_x_594.00_MM)
  6

 40
7.549999999999998
 41
20.05
 42
7.549999999999998
 43
20.05
 44
841.0
 45
594.0
 46
-7.57
 47
-20.06
 48
0.0
 49
0.0
140
0.0
141
0.0
142
1.0
143
1.0
 70
   688
 72
     1
 73
     0
 74
     5
  7

 75
    16
147
1.0
 76
     0
 77
     2
 78
   300
148
0.0128164049386896
149
0.0090630292066862
100
AcDbLayout
  1
DIN A1 Title Block
 70
     1
 71
     1
 10
0.0071835950613108
 20
0.0009369707933118
 11
841.0071835950612
 21
594.0009369707931
 12
0.0
 22
0.0
 32
0.0
 14
1.000000000000000E+20
 24
1.000000000000000E+20
 34
1.000000000000000E+20
 15
-1.000000000000000E+20
 25
-1.000000000000000E+20
 35
-1.000000000000000E+20
146
0.0
 13
0.0
 23
0.0
 33
0.0
 16
1.0
 26
0.0
 36
0.0
 17
0.0
 27
1.0
 37
0.0
 76
     0
330
C
331
74
  0
LAYOUT
  5
A
102
{ACAD_REACTORS
330
B
102
}
330
B
100
AcDbPlotSettings
  1

  2
none_device
  4
ISO_A4_(297.00_x_210.00_MM)
  6

 40
7.5
 41
20.0
 42
7.5
 43
20.0
 44
297.0
 45
210.0
 46
0.0
 47
0.0
 48
969.1120635225747
 49
1410.089773188028
140
997.7071895623687
141
1431.243016253039
142
1.0
143
20.0
 70
 11952
 72
     1
 73
     0
 74
     4
  7

 75
    22
147
0.05
 76
     0
 77
     2
 78
   300
148
-969.1120635225747
149
-1410.089773188028
100
AcDbLayout
  1
Model
 70
     1
 71
     0
 10
0.0
 20
0.0
 11
12.0
 21
9.0
 12
0.0
 22
0.0
 32
0.0
 14
0.0
 24
0.0
 34
0.0
 15
0.0
 25
0.0
 35
0.0
146
0.0
 13
0.0
 23
0.0
 33
0.0
 16
1.0
 26
0.0
 36
0.0
 17
0.0
 27
1.0
 37
0.0
 76
     0
330
2
331
233B
1001
ACAD_PSEXT
1000
\U+C5C6\U+C74C
1000
\U+C5C6\U+C74C
1000
\U+C801\U+C6A9 \U+AC00\U+B2A5\U+D558\U+C9C0 \U+C54A\U+C74C
1000
\U+BC30\U+CE58\U+AC00 \U+C0C8\U+B85C\U+C6B4 \U+D50C\U+B85C\U+D130 \U+AD6C\U+C131\U+C744 \U+C120\U+D0DD\U+D560 \U+B54C\U+AE4C\U+C9C0 \U+D50C\U+B86F\U+B418\U+C9C0 \U+C54A\U+C2B5\U+B2C8\U+B2E4.
1070
     0
  0
MATERIAL
  5
2349
102
{ACAD_XDICTIONARY
360
236B
102
}
102
{ACAD_REACTORS
330
5A2
102
}
330
5A2
100
AcDbMaterial
  1
ByBlock
  0
MATERIAL
  5
2348
102
{ACAD_XDICTIONARY
360
2369
102
}
102
{ACAD_REACTORS
330
5A2
102
}
330
5A2
100
AcDbMaterial
  1
ByLayer
  0
MATERIAL
  5
234A
102
{ACAD_XDICTIONARY
360
236D
102
}
102
{ACAD_REACTORS
330
5A2
102
}
330
5A2
100
AcDbMaterial
  1
Global
  0
MLINESTYLE
  5
23
102
{ACAD_REACTORS
330
21
102
}
330
21
100
AcDbMlineStyle
  2
STANDARD
 70
     0
  3

 62
   256
 51
90.0
 52
90.0
 71
     2
 49
0.5
 62
   256
  6
BYLAYER
 49
-0.5
 62
   256
  6
BYLAYER
  0
ACDBPLACEHOLDER
  5
5
102
{ACAD_REACTORS
330
6
102
}
330
6
  0
TABLESTYLE
  5
5C4
102
{ACAD_XDICTIONARY
360
2367
102
}
102
{ACAD_REACTORS
330
5C3
102
}
330
5C3
100
AcDbTableStyle
  3
Standard
 70
     0
 71
     0
 40
1.5
 41
1.5
280
     0
281
     0
  7
Standard
140
4.5
170
     2
 62
     0
 63
     7
283
     0
274
    -2
284
     1
 64
     0
275
    -2
285
     1
 65
     0
276
    -2
286
     1
 66
     0
277
    -2
287
     1
 67
     0
278
    -2
288
     1
 68
     0
279
    -2
289
     1
 69
     0
  7
Standard
140
6.0
170
     5
 62
     0
 63
     7
283
     0
274
    -2
284
     1
 64
     0
275
    -2
285
     1
 65
     0
276
    -2
286
     1
 66
     0
277
    -2
287
     1
 67
     0
278
    -2
288
     1
 68
     0
279
    -2
289
     1
 69
     0
  7
Standard
140
4.5
170
     5
 62
     0
 63
     7
283
     0
274
    -2
284
     1
 64
     0
275
    -2
285
     1
 65
     0
276
    -2
286
     1
 66
     0
277
    -2
287
     1
 67
     0
278
    -2
288
     1
 68
     0
279
    -2
289
     1
 69
     0
  0
VISUALSTYLE
  5
2351
102
{ACAD_REACTORS
330
234B
102
}
330
234B
100
AcDbVisualStyle
  2
2dWireframe
 70
     4
 71
     0
 72
     2
 73
     0
 90
        0
 40
-0.6
 41
-30.0
 62
     5
 63
     7
421
 16777215
 74
     1
 91
        4
 64
     7
 65
   257
 75
     1
175
     1
 42
1.0
 92
        0
 66
   257
 43
1.0
 76
     1
 77
     6
 78
     2
 67
     7
 79
     5
170
     0
171
     0
290
     0
174
     0
 93
        1
 44
0.0
173
     0
291
     0
 45
0.0
1001
ACAD
1000
AcDbSavedByObjectVersion
1070
     0
  0
VISUALSTYLE
  5
2353
102
{ACAD_REACTORS
330
234B
102
}
330
234B
100
AcDbVisualStyle
  2
3D Hidden
 70
     6
 71
     1
 72
     2
 73
     2
 90
        0
 40
-0.6
 41
-30.0
 62
     5
 63
     7
421
 16777215
 74
     2
 91
        2
 64
     7
 65
   257
 75
     2
175
     1
 42
40.0
 92
        0
 66
   257
 43
1.0
 76
     1
 77
     6
 78
     2
 67
     7
 79
     3
170
     0
171
     0
290
     0
174
     0
 93
        1
 44
0.0
173
     0
291
     0
 45
0.0
1001
ACAD
1000
AcDbSavedByObjectVersion
1070
     0
  0
VISUALSTYLE
  5
2352
102
{ACAD_REACTORS
330
234B
102
}
330
234B
100
AcDbVisualStyle
  2
3dWireframe
 70
     5
 71
     0
 72
     2
 73
     0
 90
        0
 40
-0.6
 41
-30.0
 62
     5
 63
     7
421
 16777215
 74
     1
 91
        4
 64
     7
 65
   257
 75
     1
175
     1
 42
1.0
 92
        0
 66
   257
 43
1.0
 76
     1
 77
     6
 78
     2
 67
     7
 79
     5
170
     0
171
     0
290
     0
174
     0
 93
        1
 44
0.0
173
     0
291
     0
 45
0.0
1001
ACAD
1000
AcDbSavedByObjectVersion
1070
     0
  0
VISUALSTYLE
  5
2350
102
{ACAD_REACTORS
330
234B
102
}
330
234B
100
AcDbVisualStyle
  2
Basic
 70
     7
 71
     1
 72
     0
 73
     1
 90
        0
 40
-0.6
 41
-30.0
 62
     5
 63
     7
421
 16777215
 74
     0
 91
        4
 64
     7
 65
   257
 75
     1
175
     1
 42
1.0
 92
        8
 66
     7
 43
1.0
 76
     1
 77
     6
 78
     2
 67
     7
 79
     5
170
     0
171
     0
290
     0
174
     0
 93
        1
 44
0.0
173
     0
291
     1
 45
0.0
1001
ACAD
1000
AcDbSavedByObjectVersion
1070
     0
  0
VISUALSTYLE
  5
2357
102
{ACAD_REACTORS
330
234B
102
}
330
234B
100
AcDbVisualStyle
  2
Brighten
 70
    12
 71
     2
 72
     2
 73
     0
 90
        0
 40
-0.6
 41
-30.0
 62
     5
 63
     7
421
 16777215
 74
     1
 91
        4
 64
     7
 65
   257
 75
     1
175
     1
 42
1.0
 92
        8
 66
     7
 43
1.0
 76
     1
 77
     6
 78
     2
 67
     7
 79
     5
170
     0
171
     0
290
     0
174
     0
 93
        1
 44
50.0
173
     0
291
     1
 45
0.0
1001
ACAD
1000
AcDbSavedByObjectVersion
1070
     0
  0
VISUALSTYLE
  5
235B
102
{ACAD_REACTORS
330
234B
102
}
330
234B
100
AcDbVisualStyle
  2
ColorChange
 70
    16
 71
     2
 72
     2
 73
     3
 90
        0
 40
-0.6
 41
-30.0
 62
     5
 63
     8
421
  8421504
 74
     1
 91
        4
 64
     7
 65
   257
 75
     1
175
     1
 42
1.0
 92
        8
 66
     8
424
  8421504
 43
1.0
 76
     1
 77
     6
 78
     2
 67
     7
 79
     5
170
     0
171
     0
290
     0
174
     0
 93
        1
 44
0.0
173
     0
291
     1
 45
0.0
1001
ACAD
1000
AcDbSavedByObjectVersion
1070
     0
  0
VISUALSTYLE
  5
2354
102
{ACAD_REACTORS
330
234B
102
}
330
234B
100
AcDbVisualStyle
  2
Conceptual
 70
     9
 71
     3
 72
     2
 73
     0
 90
        0
 40
-0.6
 41
-30.0
 62
     5
 63
     7
421
 16777215
 74
     2
 91
        2
 64
     7
 65
   257
 75
     1
175
     1
 42
40.0
 92
        8
 66
     7
 43
1.0
 76
     1
 77
     6
 78
     2
 67
     7
 79
     3
170
     0
171
     0
290
     0
174
     0
 93
        1
 44
0.0
173
     0
291
     0
 45
0.0
1001
ACAD
1000
AcDbSavedByObjectVersion
1070
     0
  0
VISUALSTYLE
  5
2356
102
{ACAD_REACTORS
330
234B
102
}
330
234B
100
AcDbVisualStyle
  2
Dim
 70
    11
 71
     2
 72
     2
 73
     0
 90
        0
 40
-0.6
 41
-30.0
 62
     5
 63
     7
421
 16777215
 74
     1
 91
        4
 64
     7
 65
   257
 75
     1
175
     1
 42
1.0
 92
        8
 66
     7
 43
1.0
 76
     1
 77
     6
 78
     2
 67
     7
 79
     5
170
     0
171
     0
290
     0
174
     0
 93
        1
 44
-50.0
173
     0
291
     1
 45
0.0
1001
ACAD
1000
AcDbSavedByObjectVersion
1070
     0
  0
VISUALSTYLE
  5
235A
102
{ACAD_REACTORS
330
234B
102
}
330
234B
100
AcDbVisualStyle
  2
Facepattern
 70
    15
 71
     2
 72
     2
 73
     0
 90
        0
 40
-0.6
 41
-30.0
 62
     5
 63
     7
421
 16777215
 74
     1
 91
        4
 64
     7
 65
   257
 75
     1
175
     1
 42
1.0
 92
        8
 66
     7
 43
1.0
 76
     1
 77
     6
 78
     2
 67
     7
 79
     5
170
     0
171
     0
290
     0
174
     0
 93
        1
 44
0.0
173
     0
291
     1
 45
0.0
1001
ACAD
1000
AcDbSavedByObjectVersion
1070
     0
  0
VISUALSTYLE
  5
234C
102
{ACAD_REACTORS
330
234B
102
}
330
234B
100
AcDbVisualStyle
  2
Flat
 70
     0
 71
     2
 72
     1
 73
     1
 90
        2
 40
-0.6
 41
30.0
 62
     5
 63
     7
421
 16777215
 74
     0
 91
        4
 64
     7
 65
   257
 75
     1
175
     1
 42
1.0
 92
        8
 66
     7
 43
1.0
 76
     1
 77
     6
 78
     2
 67
     7
 79
     5
170
     0
171
     0
290
     0
174
     0
 93
       13
 44
0.0
173
     0
291
     1
 45
0.0
1001
ACAD
1000
AcDbSavedByObjectVersion
1070
     0
  0
VISUALSTYLE
  5
234D
102
{ACAD_REACTORS
330
234B
102
}
330
234B
100
AcDbVisualStyle
  2
FlatWithEdges
 70
     1
 71
     2
 72
     1
 73
     1
 90
        2
 40
-0.6
 41
30.0
 62
     5
 63
     7
421
 16777215
 74
     1
 91
        4
 64
     7
 65
   257
 75
     1
175
     1
 42
1.0
 92
        0
 66
   257
 43
1.0
 76
     1
 77
     6
 78
     2
 67
     7
 79
     5
170
     0
171
     0
290
     0
174
     0
 93
       13
 44
0.0
173
     0
291
     1
 45
0.0
1001
ACAD
1000
AcDbSavedByObjectVersion
1070
     0
  0
VISUALSTYLE
  5
234E
102
{ACAD_REACTORS
330
234B
102
}
330
234B
100
AcDbVisualStyle
  2
Gouraud
 70
     2
 71
     2
 72
     2
 73
     1
 90
        2
 40
-0.6
 41
30.0
 62
     5
 63
     7
421
 16777215
 74
     0
 91
        4
 64
     7
 65
   257
 75
     1
175
     1
 42
1.0
 92
        0
 66
     7
 43
1.0
 76
     1
 77
     6
 78
     2
 67
     7
 79
     5
170
     0
171
     0
290
     0
174
     0
 93
       13
 44
0.0
173
     0
291
     1
 45
0.0
1001
ACAD
1000
AcDbSavedByObjectVersion
1070
     0
  0
VISUALSTYLE
  5
234F
102
{ACAD_REACTORS
330
234B
102
}
330
234B
100
AcDbVisualStyle
  2
GouraudWithEdges
 70
     3
 71
     2
 72
     2
 73
     1
 90
        2
 40
-0.6
 41
30.0
 62
     5
 63
     7
421
 16777215
 74
     1
 91
        4
 64
     7
 65
   257
 75
     1
175
     1
 42
1.0
 92
        0
 66
   257
 43
1.0
 76
     1
 77
     6
 78
     2
 67
     7
 79
     5
170
     0
171
     0
290
     0
174
     0
 93
       13
 44
0.0
173
     0
291
     1
 45
0.0
1001
ACAD
1000
AcDbSavedByObjectVersion
1070
     0
  0
VISUALSTYLE
  5
2359
102
{ACAD_REACTORS
330
234B
102
}
330
234B
100
AcDbVisualStyle
  2
Linepattern
 70
    14
 71
     2
 72
     2
 73
     0
 90
        0
 40
-0.6
 41
-30.0
 62
     5
 63
     7
421
 16777215
 74
     1
 91
        4
 64
     7
 65
   257
 75
     7
175
     7
 42
1.0
 92
        8
 66
     7
 43
1.0
 76
     1
 77
     6
 78
     2
 67
     7
 79
     5
170
     0
171
     0
290
     0
174
     0
 93
        1
 44
0.0
173
     0
291
     1
 45
0.0
1001
ACAD
1000
AcDbSavedByObjectVersion
1070
     0
  0
VISUALSTYLE
  5
2355
102
{ACAD_REACTORS
330
234B
102
}
330
234B
100
AcDbVisualStyle
  2
Realistic
 70
     8
 71
     2
 72
     2
 73
     0
 90
        0
 40
-0.6
 41
-30.0
 62
     5
 63
     7
421
 16777215
 74
     1
 91
        0
 64
     7
 65
   257
 75
     1
175
     1
 42
1.0
 92
        8
 66
     8
424
  7895160
 43
1.0
 76
     1
 77
     6
 78
     2
 67
     7
 79
     5
170
     0
171
     0
290
     0
174
     0
 93
       13
 44
0.0
173
     0
291
     0
 45
0.0
1001
ACAD
1000
AcDbSavedByObjectVersion
1070
     0
  0
VISUALSTYLE
  5
2358
102
{ACAD_REACTORS
330
234B
102
}
330
234B
100
AcDbVisualStyle
  2
Thicken
 70
    13
 71
     2
 72
     2
 73
     0
 90
        0
 40
-0.6
 41
-30.0
 62
     5
 63
     7
421
 16777215
 74
     1
 91
        4
 64
     7
 65
   257
 75
     1
175
     1
 42
1.0
 92
       12
 66
     7
 43
1.0
 76
     1
 77
     6
 78
     2
 67
     7
 79
     5
170
     0
171
     0
290
     0
174
     0
 93
        1
 44
0.0
173
     0
291
     1
 45
0.0
1001
ACAD
1000
AcDbSavedByObjectVersion
1070
     0
  0
DICTIONARYVAR
  5
5EE
102
{ACAD_REACTORS
330
81
102
}
330
81
100
DictionaryVariables
280
     0
  1
STANDARD
  0
DICTIONARYVAR
  5
82
102
{ACAD_REACTORS
330
81
102
}
330
81
100
DictionaryVariables
280
     0
  1
1
  0
DICTIONARYVAR
  5
22F1
102
{ACAD_REACTORS
330
81
102
}
330
81
100
DictionaryVariables
280
     0
  1

  0
DICTIONARY
  5
236B
330
2349
100
AcDbDictionary
280
     1
281
     1
  3
ACAD_XREC_ROUNDTRIP
360
236C
  0
DICTIONARY
  5
2369
330
2348
100
AcDbDictionary
280
     1
281
     1
  3
ACAD_XREC_ROUNDTRIP
360
236A
  0
DICTIONARY
  5
236D
330
234A
100
AcDbDictionary
280
     1
281
     1
  3
ACAD_XREC_ROUNDTRIP
360
236E
  0
DICTIONARY
  5
2367
330
5C4
100
AcDbDictionary
280
     1
281
     1
  3
ACAD_XREC_ROUNDTRIP
360
2368
  0
XRECORD
  5
236C
102
{ACAD_REACTORS
330
236B
102
}
330
236B
100
AcDbXrecord
280
     1
102
MATERIAL
148
0.0
149
0.0
149
0.0
 93
        0
 94
       63
282
     0
 72
     1
 77
     1
171
     1
175
     1
179
     1
273
     0
  0
XRECORD
  5
236A
102
{ACAD_REACTORS
330
2369
102
}
330
2369
100
AcDbXrecord
280
     1
102
MATERIAL
148
0.0
149
0.0
149
0.0
 93
        0
 94
       63
282
     0
 72
     1
 77
     1
171
     1
175
     1
179
     1
273
     0
  0
XRECORD
  5
236E
102
{ACAD_REACTORS
330
236D
102
}
330
236D
100
AcDbXrecord
280
     1
102
MATERIAL
148
0.0
149
0.0
149
0.0
 93
        0
 94
       63
282
     0
 72
     1
 77
     1
171
     1
175
     1
179
     1
273
     0
  0
XRECORD
  5
2368
102
{ACAD_REACTORS
330
2367
102
}
330
2367
100
AcDbXrecord
280
     1
102
ACAD_ROUNDTRIP_PRE2007_TABLESTYLE
 90
        4
 91
        0
  1

 92
        4
 93
        0
  2

 94
        4
 95
        0
  3

  0
ENDSEC
  0
EOF
