  0
SECTION
  2
HEADER
  9
$ACADVER
  1
AC1018
  9
$ACADMAINTVER
 70
   104
  9
$DWGCODEPAGE
  3
ANSI_1252
  9
$LASTSAVEDBY
  1
user
  9
$INSBASE
 10
0.0
 20
0.0
 30
0.0
  9
$EXTMIN
 10
940.4325818452715
 20
692.1309838623997
 30
0.0
  9
$EXTMAX
 10
969.7238618452763
 20
710.1230738623954
 30
0.0
  9
$LIMMIN
 10
0.0
 20
0.0
  9
$LIMMAX
 10
420.0
 20
297.0
  9
$ORTHOMODE
 70
     0
  9
$REGENMODE
 70
     1
  9
$FILLMODE
 70
     1
  9
$QTEXTMODE
 70
     0
  9
$MIRRTEXT
 70
     0
  9
$LTSCALE
 40
1.0
  9
$ATTMODE
 70
     1
  9
$TEXTSIZE
 40
0.3937
  9
$TRACEWID
 40
1.0
  9
$TEXTSTYLE
  7
\U+C2A4\U+D0C0\U+C77C2
  9
$CLAYER
  8
0
  9
$CELTYPE
  6
ByLayer
  9
$CECOLOR
 62
   256
  9
$CELTSCALE
 40
1.0
  9
$DISPSILH
 70
     0
  9
$DIMSCALE
 40
1.0
  9
$DIMASZ
 40
0.2
  9
$DIMEXO
 40
0.1
  9
$DIMDLI
 40
0.039
  9
$DIMRND
 40
0.0
  9
$DIMDLE
 40
0.0
  9
$DIMEXE
 40
0.2
  9
$DIMTP
 40
0.0
  9
$DIMTM
 40
0.0
  9
$DIMTXT
 40
2.5
  9
$DIMCEN
 40
0.039
  9
$DIMTSZ
 40
0.0
  9
$DIMTOL
 70
     0
  9
$DIMLIM
 70
     0
  9
$DIMTIH
 70
     0
  9
$DIMTOH
 70
     0
  9
$DIMSE1
 70
     0
  9
$DIMSE2
 70
     0
  9
$DIMTAD
 70
     1
  9
$DIMZIN
 70
     8
  9
$DIMBLK
  1

  9
$DIMASO
 70
     1
  9
$DIMSHO
 70
     1
  9
$DIMPOST
  1

  9
$DIMAPOST
  1

  9
$DIMALT
 70
     0
  9
$DIMALTD
 70
     2
  9
$DIMALTF
 40
0.0394
  9
$DIMLFAC
 40
1.0
  9
$DIMTOFL
 70
     1
  9
$DIMTVP
 40
1.0
  9
$DIMTIX
 70
     0
  9
$DIMSOXD
 70
     0
  9
$DIMSAH
 70
     0
  9
$DIMBLK1
  1

  9
$DIMBLK2
  1

  9
$DIMSTYLE
  2
DIN
  9
$DIMCLRD
 70
     0
  9
$DIMCLRE
 70
     0
  9
$DIMCLRT
 70
     0
  9
$DIMTFAC
 40
1.0
  9
$DIMGAP
 40
0.05
  9
$DIMJUST
 70
     0
  9
$DIMSD1
 70
     0
  9
$DIMSD2
 70
     0
  9
$DIMTOLJ
 70
     1
  9
$DIMTZIN
 70
     0
  9
$DIMALTZ
 70
     0
  9
$DIMALTTZ
 70
     0
  9
$DIMUPT
 70
     0
  9
$DIMDEC
 70
     4
  9
$DIMTDEC
 70
     4
  9
$DIMALTU
 70
     8
  9
$DIMALTTD
 70
     2
  9
$DIMTXSTY
  7
\U+C2A4\U+D0C0\U+C77C2
  9
$DIMAUNIT
 70
     0
  9
$DIMADEC
 70
     0
  9
$DIMALTRND
 40
0.0
  9
$DIMAZIN
 70
     0
  9
$DIMDSEP
 70
    46
  9
$DIMATFIT
 70
     3
  9
$DIMFRAC
 70
     0
  9
$DIMLDRBLK
  1

  9
$DIMLUNIT
 70
     6
  9
$DIMLWD
 70
    -2
  9
$DIMLWE
 70
    -2
  9
$DIMTMOVE
 70
     0
  9
$LUNITS
 70
     3
  9
$LUPREC
 70
     4
  9
$SKETCHINC
 40
1.0
  9
$FILLETRAD
 40
0.59
  9
$AUNITS
 70
     0
  9
$AUPREC
 70
     0
  9
$MENU
  1
.
  9
$ELEVATION
 40
0.0
  9
$PELEVATION
 40
0.0
  9
$THICKNESS
 40
0.0
  9
$LIMCHECK
 70
     0
  9
$CHAMFERA
 40
0.0
  9
$CHAMFERB
 40
0.0
  9
$CHAMFERC
 40
0.0
  9
$CHAMFERD
 40
0.0
  9
$SKPOLY
 70
     0
  9
$TDCREATE
 40
2454393.137688252
  9
$TDUCREATE
 40
2454393.346021586
  9
$TDUPDATE
 40
2458464.617427338
  9
$TDUUPDATE
 40
2458464.825760672
  9
$TDINDWG
 40
0.7820431134
  9
$TDUSRTIMER
 40
0.7820427431
  9
$USRTIMER
 70
     1
  9
$ANGBASE
 50
0.0
  9
$ANGDIR
 70
     0
  9
$PDMODE
 70
     0
  9
$PDSIZE
 40
0.0
  9
$PLINEWID
 40
0.0
  9
$SPLFRAME
 70
     0
  9
$SPLINETYPE
 70
     6
  9
$SPLINESEGS
 70
     8
  9
$HANDSEED
  5
28C8
  9
$SURFTAB1
 70
     6
  9
$SURFTAB2
 70
     6
  9
$SURFTYPE
 70
     6
  9
$SURFU
 70
     6
  9
$SURFV
 70
     6
  9
$UCSBASE
  2

  9
$UCSNAME
  2

  9
$UCSORG
 10
0.0
 20
0.0
 30
0.0
  9
$UCSXDIR
 10
1.0
 20
0.0
 30
0.0
  9
$UCSYDIR
 10
0.0
 20
1.0
 30
0.0
  9
$UCSORTHOREF
  2

  9
$UCSORTHOVIEW
 70
     0
  9
$UCSORGTOP
 10
0.0
 20
0.0
 30
0.0
  9
$UCSORGBOTTOM
 10
0.0
 20
0.0
 30
0.0
  9
$UCSORGLEFT
 10
0.0
 20
0.0
 30
0.0
  9
$UCSORGRIGHT
 10
0.0
 20
0.0
 30
0.0
  9
$UCSORGFRONT
 10
0.0
 20
0.0
 30
0.0
  9
$UCSORGBACK
 10
0.0
 20
0.0
 30
0.0
  9
$PUCSBASE
  2

  9
$PUCSNAME
  2

  9
$PUCSORG
 10
0.0
 20
0.0
 30
0.0
  9
$PUCSXDIR
 10
1.0
 20
0.0
 30
0.0
  9
$PUCSYDIR
 10
0.0
 20
1.0
 30
0.0
  9
$PUCSORTHOREF
  2

  9
$PUCSORTHOVIEW
 70
     0
  9
$PUCSORGTOP
 10
0.0
 20
0.0
 30
0.0
  9
$PUCSORGBOTTOM
 10
0.0
 20
0.0
 30
0.0
  9
$PUCSORGLEFT
 10
0.0
 20
0.0
 30
0.0
  9
$PUCSORGRIGHT
 10
0.0
 20
0.0
 30
0.0
  9
$PUCSORGFRONT
 10
0.0
 20
0.0
 30
0.0
  9
$PUCSORGBACK
 10
0.0
 20
0.0
 30
0.0
  9
$USERI1
 70
     0
  9
$USERI2
 70
     0
  9
$USERI3
 70
     0
  9
$USERI4
 70
     0
  9
$USERI5
 70
     0
  9
$USERR1
 40
0.0
  9
$USERR2
 40
0.0
  9
$USERR3
 40
0.0
  9
$USERR4
 40
0.0
  9
$USERR5
 40
0.0
  9
$WORLDVIEW
 70
     1
  9
$SHADEDGE
 70
     3
  9
$SHADEDIF
 70
    70
  9
$TILEMODE
 70
     1
  9
$MAXACTVP
 70
    64
  9
$PINSBASE
 10
0.0
 20
0.0
 30
0.0
  9
$PLIMCHECK
 70
     0
  9
$PEXTMIN
 10
1.000000000000000E+20
 20
1.000000000000000E+20
 30
1.000000000000000E+20
  9
$PEXTMAX
 10
-1.000000000000000E+20
 20
-1.000000000000000E+20
 30
-1.000000000000000E+20
  9
$PLIMMIN
 10
0.0071835950613108
 20
0.0009369707933118
  9
$PLIMMAX
 10
841.0071835950612
 20
594.0009369707931
  9
$UNITMODE
 70
     0
  9
$VISRETAIN
 70
     1
  9
$PLINEGEN
 70
     0
  9
$PSLTSCALE
 70
     1
  9
$TREEDEPTH
 70
  3020
  9
$CMLSTYLE
  2
Standard
  9
$CMLJUST
 70
     0
  9
$CMLSCALE
 40
20.0
  9
$PROXYGRAPHICS
 70
     1
  9
$MEASUREMENT
 70
     1
  9
$CELWEIGHT
370
    -1
  9
$ENDCAPS
280
     0
  9
$JOINSTYLE
280
     0
  9
$LWDISPLAY
290
     0
  9
$INSUNITS
 70
     1
  9
$HYPERLINKBASE
  1

  9
$STYLESHEET
  1

  9
$XEDIT
290
     1
  9
$CEPSNTYPE
380
     0
  9
$PSTYLEMODE
290
     1
  9
$FINGERPRINTGUID
  2
{AC2FA5CB-6F18-4BC2-9C5F-F25C10372E5B}
  9
$VERSIONGUID
  2
{66CF47F3-764D-4EF0-8AAA-3D432DDA26D1}
  9
$EXTNAMES
290
     1
  9
$PSVPSCALE
 40
0.0
  9
$OLESTARTUP
290
     0
  9
$SORTENTS
280
   127
  9
$INDEXCTL
280
     0
  9
$HIDETEXT
280
     0
  9
$XCLIPFRAME
290
     0
  9
$HALOGAP
280
     0
  9
$OBSCOLOR
 70
   257
  9
$OBSLTYPE
280
     0
  9
$INTERSECTIONDISPLAY
280
     0
  9
$INTERSECTIONCOLOR
 70
   257
  9
$DIMASSOC
280
     1
  9
$PROJECTNAME
  1

  0
ENDSEC
  0
SECTION
  2
CLASSES
  0
CLASS
  1
ACDBDICTIONARYWDFLT
  2
AcDbDictionaryWithDefault
  3
ObjectDBX Classes
 90
        0
 91
        1
280
     0
281
     0
  0
CLASS
  1
PLOTSETTINGS
  2
AcDbPlotSettings
  3
ObjectDBX Classes
 90
        0
 91
        0
280
     0
281
     0
  0
CLASS
  1
DICTIONARYVAR
  2
AcDbDictionaryVar
  3
ObjectDBX Classes
 90
        0
 91
        3
280
     0
281
     0
  0
CLASS
  1
TABLESTYLE
  2
AcDbTableStyle
  3
ObjectDBX Classes
 90
     4095
 91
        1
280
     0
281
     0
  0
CLASS
  1
DIMASSOC
  2
AcDbDimAssoc
  3
"AcDbDimAssoc|Product Desc:     AcDim ARX App For Dimension|Company:          Autodesk, Inc.|WEB Address:      www.autodesk.com"
 90
        0
 91
        0
280
     0
281
     0
  0
CLASS
  1
SORTENTSTABLE
  2
AcDbSortentsTable
  3
ObjectDBX Classes
 90
        0
 91
        2
280
     0
281
     0
  0
CLASS
  1
MATERIAL
  2
AcDbMaterial
  3
ObjectDBX Classes
 90
     1024
 91
        3
280
     0
281
     0
  0
CLASS
  1
VISUALSTYLE
  2
AcDbVisualStyle
  3
ObjectDBX Classes
 90
     4095
 91
       16
280
     0
281
     0
  0
ENDSEC
  0
SECTION
  2
TABLES
  0
TABLE
  2
VPORT
  5
19
330
0
100
AcDbSymbolTable
 70
     1
  0
VPORT
  5
2894
330
19
100
AcDbSymbolTableRecord
100
AcDbViewportTableRecord
  2
*Active
 70
     0
 10
0.0
 20
0.0
 11
1.0
 21
1.0
 12
971.8876247839766
 22
698.651861845129
 13
0.0
 23
0.0
 14
10.0
 24
10.0
 15
10.0
 25
10.0
 16
0.0
 26
0.0
 36
1.0
 17
0.0
 27
0.0
 37
0.0
 40
17.07336594845356
 41
3.557324840764331
 42
50.0
 43
0.0
 44
0.0
 50
0.0
 51
0.0
 71
     0
 72
  1000
 73
     1
 74
     3
 75
     0
 76
     0
 77
     0
 78
     0
281
     0
 65
     1
110
0.0
120
0.0
130
0.0
111
1.0
121
0.0
131
0.0
112
0.0
122
1.0
132
0.0
 79
     0
146
0.0
  0
ENDTAB
  0
TABLE
  2
LTYPE
  5
14
330
0
100
AcDbSymbolTable
 70
     2
  0
LTYPE
  5
15
330
14
100
AcDbSymbolTableRecord
100
AcDbLinetypeTableRecord
  2
ByBlock
 70
     0
  3

 72
    65
 73
     0
 40
0.0
  0
LTYPE
  5
16
330
14
100
AcDbSymbolTableRecord
100
AcDbLinetypeTableRecord
  2
ByLayer
 70
     0
  3

 72
    65
 73
     0
 40
0.0
  0
LTYPE
  5
8
330
14
100
AcDbSymbolTableRecord
100
AcDbLinetypeTableRecord
  2
Continuous
 70
     0
  3
Solid line
 72
    65
 73
     0
 40
0.0
  0
LTYPE
  5
1811
330
14
100
AcDbSymbolTableRecord
100
AcDbLinetypeTableRecord
  2
ACAD_ISO04W100
 70
     0
  3
ISO long-dash dot ____ . ____ . ____ . ____ . _
 72
    65
 73
     4
 40
30.0
 49
24.0
 74
     0
 49
-3.0
 74
     0
 49
0.0
 74
     0
 49
-3.0
 74
     0
  0
ENDTAB
  0
TABLE
  2
LAYER
  5
10
102
{ACAD_XDICTIONARY
360
1F2B
102
}
330
0
100
AcDbSymbolTable
 70
     9
  0
LAYER
  5
4
330
10
100
AcDbSymbolTableRecord
100
AcDbLayerTableRecord
  2
0
 70
     0
 62
     7
  6
Continuous
370
    -3
390
5
  0
LAYER
  5
8E
330
10
100
AcDbSymbolTableRecord
100
AcDbLayerTableRecord
  2
07
 70
     0
 62
     7
  6
Continuous
370
    -3
390
5
  0
LAYER
  5
8F
330
10
100
AcDbSymbolTableRecord
100
AcDbLayerTableRecord
  2
035
 70
     0
 62
     5
  6
Continuous
370
    -3
390
5
  0
LAYER
  5
90
330
10
100
AcDbSymbolTableRecord
100
AcDbLayerTableRecord
  2
05
 70
     0
 62
     6
  6
Continuous
370
    -3
390
5
  0
LAYER
  5
91
330
10
100
AcDbSymbolTableRecord
100
AcDbLayerTableRecord
  2
025
 70
     0
 62
     1
  6
Continuous
370
    -3
390
5
  0
LAYER
  5
5CE
330
10
100
AcDbSymbolTableRecord
100
AcDbLayerTableRecord
  2
Defpoints
 70
     0
 62
     7
  6
Continuous
290
     0
370
    -3
390
5
  0
LAYER
  5
62B
330
10
100
AcDbSymbolTableRecord
100
AcDbLayerTableRecord
  2
\U+7C97\U+5B9E\U+7EBF
 70
     0
 62
     7
  6
Continuous
370
    30
390
5
  0
LAYER
  5
62C
330
10
100
AcDbSymbolTableRecord
100
AcDbLayerTableRecord
  2
\U+6807\U+6CE8\U+7EBF
 70
     0
 62
     7
  6
Continuous
370
    13
390
5
  0
LAYER
  5
1812
330
10
100
AcDbSymbolTableRecord
100
AcDbLayerTableRecord
  2
\U+4E2D\U+5FC3\U+7EBF
 70
     0
 62
     7
  6
ACAD_ISO04W100
370
    18
390
5
  0
ENDTAB
  0
TABLE
  2
STYLE
  5
11
330
0
100
AcDbSymbolTable
 70
     4
  0
STYLE
  5
12
330
11
100
AcDbSymbolTableRecord
100
AcDbTextStyleTableRecord
  2
Standard
 70
     0
 40
0.0
 41
1.0
 50
0.0
 71
     0
 42
2.5
  3
txt
  4

  0
STYLE
  5
31
330
11
100
AcDbSymbolTableRecord
100
AcDbTextStyleTableRecord
  2
ISO Proportional
 70
     0
 40
0.0
 41
1.0
 50
0.0
 71
     0
 42
2.5
  3
isocp.shx
  4

  0
STYLE
  5
B96
330
11
100
AcDbSymbolTableRecord
100
AcDbTextStyleTableRecord
  2
\U+C2A4\U+D0C0\U+C77C1
 70
     0
 40
0.1968
 41
1.0
 50
0.0
 71
     0
 42
2.5
  3
txt.shx
  4

  0
STYLE
  5
B97
330
11
100
AcDbSymbolTableRecord
100
AcDbTextStyleTableRecord
  2
\U+C2A4\U+D0C0\U+C77C2
 70
     0
 40
0.3937
 41
1.0
 50
0.0
 71
     0
 42
0.3937
  3
txt.shx
  4

  0
ENDTAB
  0
TABLE
  2
VIEW
  5
17
330
0
100
AcDbSymbolTable
 70
     0
  0
ENDTAB
  0
TABLE
  2
UCS
  5
18
330
0
100
AcDbSymbolTable
 70
     0
  0
ENDTAB
  0
TABLE
  2
APPID
  5
1B
330
0
100
AcDbSymbolTable
 70
    12
  0
APPID
  5
1C
330
1B
100
AcDbSymbolTableRecord
100
AcDbRegAppTableRecord
  2
ACAD
 70
     0
  0
APPID
  5
346
330
1B
100
AcDbSymbolTableRecord
100
AcDbRegAppTableRecord
  2
GENIUS_GENTRA_14
 70
     0
  0
APPID
  5
347
330
1B
100
AcDbSymbolTableRecord
100
AcDbRegAppTableRecord
  2
GENIUS_GENODEF_13
 70
     0
  0
APPID
  5
348
330
1B
100
AcDbSymbolTableRecord
100
AcDbRegAppTableRecord
  2
GENIUS_GENOBJ-N-TIT_13
 70
     0
  0
APPID
  5
349
330
1B
100
AcDbSymbolTableRecord
100
AcDbRegAppTableRecord
  2
GENIUS_GENTITLE_13
 70
     0
  0
APPID
  5
34A
330
1B
100
AcDbSymbolTableRecord
100
AcDbRegAppTableRecord
  2
GENIUS_GENOENT_13
 70
     0
  0
APPID
  5
34B
330
1B
100
AcDbSymbolTableRecord
100
AcDbRegAppTableRecord
  2
GENIUS_GENOREF_13
 70
     0
  0
APPID
  5
34C
330
1B
100
AcDbSymbolTableRecord
100
AcDbRegAppTableRecord
  2
GENIUS_GENOLIS_13
 70
     0
  0
APPID
  5
34D
330
1B
100
AcDbSymbolTableRecord
100
AcDbRegAppTableRecord
  2
GENIUS_GENOBJ-N-SDF_13
 70
     0
  0
APPID
  5
34E
330
1B
100
AcDbSymbolTableRecord
100
AcDbRegAppTableRecord
  2
GENIUS_GENSCREG_13
 70
     0
  0
APPID
  5
886
330
1B
100
AcDbSymbolTableRecord
100
AcDbRegAppTableRecord
  2
ACAD_DSTYLE_DIMTEXT_FILL
 70
     0
  0
APPID
  5
B8B
330
1B
100
AcDbSymbolTableRecord
100
AcDbRegAppTableRecord
  2
ACAD_PSEXT
 70
     0
  0
ENDTAB
  0
TABLE
  2
DIMSTYLE
  5
1D
330
0
100
AcDbSymbolTable
 70
     4
100
AcDbDimStyleTable
 71
     1
340
1E
  0
DIMSTYLE
105
1E
330
1D
100
AcDbSymbolTableRecord
100
AcDbDimStyleTableRecord
  2
DIN
 70
     0
 41
2.5
 42
0.625
 43
3.75
 44
1.25
 74
     0
 77
     1
 78
     8
140
2.5
141
2.5
143
0.0394
145
1.0
147
0.625
172
     1
273
     8
277
     6
340
12
  0
DIMSTYLE
105
62D
330
1D
100
AcDbSymbolTableRecord
100
AcDbDimStyleTableRecord
  2
ISO-25
 70
     0
 41
10.0
 42
0.625
 43
3.75
 44
10.0
 73
     0
 74
     0
 77
     1
 78
     8
140
20.0
141
2.5
143
0.03937007874016
147
10.0
171
     3
172
     1
271
     2
272
     2
274
     3
278
    44
279
     1
283
     0
284
     8
340
12
  0
DIMSTYLE
105
62E
330
1D
100
AcDbSymbolTableRecord
100
AcDbDimStyleTableRecord
  2
\U+526F\U+672CISO-25
 70
     0
 41
15.0
 42
0.625
 43
3.75
 44
2.0
 73
     0
 74
     0
 77
     1
 78
     8
140
22.0
141
2.5
143
0.03937007874016
147
10.0
171
     3
179
     1
271
     1
272
     1
274
     3
278
    44
279
     1
283
     0
284
     8
340
12
  0
DIMSTYLE
105
62F
330
1D
100
AcDbSymbolTableRecord
100
AcDbDimStyleTableRecord
  2
\U+526F\U+672C (2)ISO-25
 70
     0
 41
10.0
 42
0.625
 43
3.75
 44
10.0
 73
     0
 74
     0
 77
     1
 78
     8
140
10.0
141
2.5
143
0.03937007874016
147
10.0
171
     3
172
     1
271
     2
272
     2
274
     3
278
    44
283
     0
284
     8
340
12
  0
ENDTAB
  0
TABLE
  2
BLOCK_RECORD
  5
1
330
0
100
AcDbSymbolTable
 70
     8
  0
BLOCK_RECORD
  5
2
102
{ACAD_XDICTIONARY
360
95E
102
}
330
1
100
AcDbSymbolTableRecord
100
AcDbBlockTableRecord
  2
*Model_Space
340
A
  0
BLOCK_RECORD
  5
C
330
1
100
AcDbSymbolTableRecord
100
AcDbBlockTableRecord
  2
*Paper_Space
340
F
  0
BLOCK_RECORD
  5
27D1
330
1
100
AcDbSymbolTableRecord
100
AcDbBlockTableRecord
  2
*D0
340
0
  0
BLOCK_RECORD
  5
27F0
330
1
100
AcDbSymbolTableRecord
100
AcDbBlockTableRecord
  2
*D1
340
0
  0
BLOCK_RECORD
  5
27FD
330
1
100
AcDbSymbolTableRecord
100
AcDbBlockTableRecord
  2
*D2
340
0
  0
BLOCK_RECORD
  5
280A
330
1
100
AcDbSymbolTableRecord
100
AcDbBlockTableRecord
  2
*D3
340
0
  0
BLOCK_RECORD
  5
2826
330
1
100
AcDbSymbolTableRecord
100
AcDbBlockTableRecord
  2
*D4
340
0
  0
BLOCK_RECORD
  5
282F
330
1
100
AcDbSymbolTableRecord
100
AcDbBlockTableRecord
  2
*D5
340
0
  0
BLOCK_RECORD
  5
2838
330
1
100
AcDbSymbolTableRecord
100
AcDbBlockTableRecord
  2
*D6
340
0
  0
ENDTAB
  0
ENDSEC
  0
SECTION
  2
BLOCKS
  0
BLOCK
  5
3
330
2
100
AcDbEntity
  8
0
100
AcDbBlockBegin
  2
*Model_Space
 70
     2
 10
0.0
 20
0.0
 30
0.0
  3
*Model_Space
  1

  0
ENDBLK
  5
9
330
2
100
AcDbEntity
  8
0
100
AcDbBlockEnd
  0
BLOCK
  5
D
330
C
100
AcDbEntity
 67
     1
  8
0
100
AcDbBlockBegin
  2
*Paper_Space
 70
     0
 10
0.0
 20
0.0
 30
0.0
  3
*Paper_Space
  1

  0
ENDBLK
  5
E
330
C
100
AcDbEntity
 67
     1
  8
0
100
AcDbBlockEnd
  0
BLOCK
  5
27DB
330
27D1
100
AcDbEntity
  8
0
100
AcDbBlockBegin
  2
*D0
 70
     1
 10
0.0
 20
0.0
 30
0.0
  3
*D0
  1

  0
LINE
  5
2872
330
27D1
100
AcDbEntity
  8
0
 62
     0
370
    -2
100
AcDbLine
 10
940.4325818452715
 20
696.4010538623997
 30
0.0
 11
940.4325818452715
 21
690.7699388330818
 31
0.0
  0
LINE
  5
2873
330
27D1
100
AcDbEntity
  8
0
 62
     0
370
    -2
100
AcDbLine
 10
969.7238618452763
 20
696.4010538623997
 30
0.0
 11
969.7238618452763
 21
690.7699388330818
 31
0.0
  0
LINE
  5
2874
330
27D1
100
AcDbEntity
  8
0
 62
     0
370
    -2
100
AcDbLine
 10
940.6325818452721
 20
690.9699388330818
 30
0.0
 11
969.5238618452762
 21
690.9699388330818
 31
0.0
  0
SOLID
  5
2875
330
27D1
100
AcDbEntity
  8
0
 62
     0
100
AcDbTrace
 10
940.6325818452721
 20
691.0032721664149
 30
0.0
 11
940.6325818452721
 21
690.9366054997486
 31
0.0
 12
940.4325818452715
 22
690.9699388330818
 32
0.0
 13
940.4325818452715
 23
690.9699388330818
 33
0.0
  0
SOLID
  5
2876
330
27D1
100
AcDbEntity
  8
0
 62
     0
100
AcDbTrace
 10
969.5238618452762
 20
691.0032721664149
 30
0.0
 11
969.5238618452762
 21
690.9366054997486
 31
0.0
 12
969.7238618452763
 22
690.9699388330818
 32
0.0
 13
969.7238618452763
 23
690.9699388330818
 33
0.0
  0
MTEXT
  5
2877
330
27D1
100
AcDbEntity
  8
0
 62
     0
100
AcDbMText
 10
955.0782218452742
 20
691.2167888330818
 30
0.0
 40
0.3937
 41
0.0
 71
     5
 72
     1
  1
\A1;29.2913
  7
\U+C2A4\U+D0C0\U+C77C2
 73
     1
 44
1.0
  0
POINT
  5
2878
330
27D1
100
AcDbEntity
  8
Defpoints
 62
     0
100
AcDbPoint
 10
940.4325818452715
 20
696.5010538623998
 30
0.0
  0
POINT
  5
2879
330
27D1
100
AcDbEntity
  8
Defpoints
 62
     0
100
AcDbPoint
 10
969.7238618452763
 20
696.5010538623998
 30
0.0
  0
POINT
  5
287A
330
27D1
100
AcDbEntity
  8
Defpoints
 62
     0
100
AcDbPoint
 10
969.7238618452763
 20
690.9699388330818
 30
0.0
  0
ENDBLK
  5
27DC
330
27D1
100
AcDbEntity
  8
0
100
AcDbBlockEnd
  0
BLOCK
  5
27FA
330
27F0
100
AcDbEntity
  8
0
100
AcDbBlockBegin
  2
*D1
 70
     1
 10
0.0
 20
0.0
 30
0.0
  3
*D1
  1

  0
LINE
  5
27F1
330
27F0
100
AcDbEntity
  8
0
 62
     0
370
    -2
100
AcDbLine
 10
940.1963618452715
 20
696.4010538623997
 30
0.0
 11
940.1963618452715
 21
690.0223080479925
 31
0.0
  0
LINE
  5
27F2
330
27F0
100
AcDbEntity
  8
0
 62
     0
370
    -2
100
AcDbLine
 10
969.9600818452763
 20
696.4010538623997
 30
0.0
 11
969.9600818452763
 21
690.0223080479925
 31
0.0
  0
LINE
  5
27F3
330
27F0
100
AcDbEntity
  8
0
 62
     0
370
    -2
100
AcDbLine
 10
940.3963618452715
 20
690.2223080479926
 30
0.0
 11
969.7600818452762
 21
690.2223080479926
 31
0.0
  0
SOLID
  5
27F4
330
27F0
100
AcDbEntity
  8
0
 62
     0
100
AcDbTrace
 10
940.3963618452715
 20
690.2556413813256
 30
0.0
 11
940.3963618452715
 21
690.1889747146592
 31
0.0
 12
940.1963618452715
 22
690.2223080479926
 32
0.0
 13
940.1963618452715
 23
690.2223080479926
 33
0.0
  0
SOLID
  5
27F5
330
27F0
100
AcDbEntity
  8
0
 62
     0
100
AcDbTrace
 10
969.7600818452762
 20
690.2556413813256
 30
0.0
 11
969.7600818452762
 21
690.1889747146592
 31
0.0
 12
969.9600818452763
 22
690.2223080479926
 32
0.0
 13
969.9600818452763
 23
690.2223080479926
 33
0.0
  0
MTEXT
  5
27F6
330
27F0
100
AcDbEntity
  8
0
 62
     0
100
AcDbMText
 10
955.078221845274
 20
690.4691580479926
 30
0.0
 40
0.3937
 41
0.0
 71
     5
 72
     1
  1
\A1;29.7637
  7
\U+C2A4\U+D0C0\U+C77C2
 73
     1
 44
1.0
  0
POINT
  5
27F7
330
27F0
100
AcDbEntity
  8
Defpoints
 62
     0
100
AcDbPoint
 10
940.1963618452715
 20
696.5010538623998
 30
0.0
  0
POINT
  5
27F8
330
27F0
100
AcDbEntity
  8
Defpoints
 62
     0
100
AcDbPoint
 10
969.9600818452763
 20
696.5010538623998
 30
0.0
  0
POINT
  5
27F9
330
27F0
100
AcDbEntity
  8
Defpoints
 62
     0
100
AcDbPoint
 10
969.9600818452763
 20
690.2223080479926
 30
0.0
  0
ENDBLK
  5
27FB
330
27F0
100
AcDbEntity
  8
0
100
AcDbBlockEnd
  0
BLOCK
  5
2807
330
27FD
100
AcDbEntity
  8
0
100
AcDbBlockBegin
  2
*D2
 70
     1
 10
0.0
 20
0.0
 30
0.0
  3
*D2
  1

  0
LINE
  5
2869
330
27FD
100
AcDbEntity
  8
0
 62
     0
370
    -2
100
AcDbLine
 10
965.4537918452808
 20
692.1309838623997
 30
0.0
 11
971.0781574088116
 21
692.1309838623997
 31
0.0
  0
LINE
  5
286A
330
27FD
100
AcDbEntity
  8
0
 62
     0
370
    -2
100
AcDbLine
 10
965.4537918452808
 20
710.1230738623951
 30
0.0
 11
971.0781574088116
 21
710.1230738623951
 31
0.0
  0
LINE
  5
286B
330
27FD
100
AcDbEntity
  8
0
 62
     0
370
    -2
100
AcDbLine
 10
970.8781574088115
 20
692.3309838623997
 30
0.0
 11
970.8781574088115
 21
709.9230738623949
 31
0.0
  0
SOLID
  5
286C
330
27FD
100
AcDbEntity
  8
0
 62
     0
100
AcDbTrace
 10
970.8448240754783
 20
692.3309838623997
 30
0.0
 11
970.9114907421447
 21
692.3309838623997
 31
0.0
 12
970.8781574088115
 22
692.1309838623997
 32
0.0
 13
970.8781574088115
 23
692.1309838623997
 33
0.0
  0
SOLID
  5
286D
330
27FD
100
AcDbEntity
  8
0
 62
     0
100
AcDbTrace
 10
970.8448240754783
 20
709.9230738623949
 30
0.0
 11
970.9114907421447
 21
709.9230738623949
 31
0.0
 12
970.8781574088115
 22
710.1230738623951
 32
0.0
 13
970.8781574088115
 23
710.1230738623951
 33
0.0
  0
MTEXT
  5
286E
330
27FD
100
AcDbEntity
  8
0
 62
     0
100
AcDbMText
 10
970.6313074088111
 20
701.1270288623973
 30
0.0
 40
0.3937
 41
0.0
 71
     5
 72
     1
  1
\A1;17.9921
  7
\U+C2A4\U+D0C0\U+C77C2
 11
0.0000000000000001
 21
1.0
 31
0.0
 73
     1
 44
1.0
  0
POINT
  5
286F
330
27FD
100
AcDbEntity
  8
Defpoints
 62
     0
100
AcDbPoint
 10
965.3537918452807
 20
692.1309838623997
 30
0.0
  0
POINT
  5
2870
330
27FD
100
AcDbEntity
  8
Defpoints
 62
     0
100
AcDbPoint
 10
965.3537918452807
 20
710.1230738623951
 30
0.0
  0
POINT
  5
2871
330
27FD
100
AcDbEntity
  8
Defpoints
 62
     0
100
AcDbPoint
 10
970.8781574088115
 20
710.1230738623951
 30
0.0
  0
ENDBLK
  5
2808
330
27FD
100
AcDbEntity
  8
0
100
AcDbBlockEnd
  0
BLOCK
  5
2814
330
280A
100
AcDbEntity
  8
0
100
AcDbBlockBegin
  2
*D3
 70
     1
 10
0.0
 20
0.0
 30
0.0
  3
*D3
  1

  0
LINE
  5
280B
330
280A
100
AcDbEntity
  8
0
 62
     0
370
    -2
100
AcDbLine
 10
965.4537918452808
 20
691.8947638623997
 30
0.0
 11
971.7726356995092
 21
691.8947638623997
 31
0.0
  0
LINE
  5
280C
330
280A
100
AcDbEntity
  8
0
 62
     0
370
    -2
100
AcDbLine
 10
965.4537918452808
 20
710.3592938623953
 30
0.0
 11
971.7726356995092
 21
710.3592938623953
 31
0.0
  0
LINE
  5
280D
330
280A
100
AcDbEntity
  8
0
 62
     0
370
    -2
100
AcDbLine
 10
971.5726356995093
 20
692.0947638623998
 30
0.0
 11
971.5726356995093
 21
710.1592938623952
 31
0.0
  0
SOLID
  5
280E
330
280A
100
AcDbEntity
  8
0
 62
     0
100
AcDbTrace
 10
971.5393023661759
 20
692.0947638623998
 30
0.0
 11
971.6059690328423
 21
692.0947638623998
 31
0.0
 12
971.5726356995093
 22
691.8947638623997
 32
0.0
 13
971.5726356995093
 23
691.8947638623997
 33
0.0
  0
SOLID
  5
280F
330
280A
100
AcDbEntity
  8
0
 62
     0
100
AcDbTrace
 10
971.5393023661759
 20
710.1592938623952
 30
0.0
 11
971.6059690328423
 21
710.1592938623952
 31
0.0
 12
971.5726356995093
 22
710.3592938623953
 32
0.0
 13
971.5726356995093
 23
710.3592938623953
 33
0.0
  0
MTEXT
  5
2810
330
280A
100
AcDbEntity
  8
0
 62
     0
100
AcDbMText
 10
971.325785699509
 20
701.1270288623976
 30
0.0
 40
0.3937
 41
0.0
 71
     5
 72
     1
  1
\A1;18.4645
  7
\U+C2A4\U+D0C0\U+C77C2
 11
0.0000000000000001
 21
1.0
 31
0.0
 73
     1
 44
1.0
  0
POINT
  5
2811
330
280A
100
AcDbEntity
  8
Defpoints
 62
     0
100
AcDbPoint
 10
965.3537918452807
 20
691.8947638623997
 30
0.0
  0
POINT
  5
2812
330
280A
100
AcDbEntity
  8
Defpoints
 62
     0
100
AcDbPoint
 10
965.3537918452807
 20
710.3592938623953
 30
0.0
  0
POINT
  5
2813
330
280A
100
AcDbEntity
  8
Defpoints
 62
     0
100
AcDbPoint
 10
971.5726356995093
 20
710.3592938623953
 30
0.0
  0
ENDBLK
  5
2815
330
280A
100
AcDbEntity
  8
0
100
AcDbBlockEnd
  0
BLOCK
  5
282C
330
2826
100
AcDbEntity
  8
0
100
AcDbBlockBegin
  2
*D4
 70
     1
 10
0.0
 20
0.0
 30
0.0
  3
*D4
  1

  0
LINE
  5
2827
330
2826
100
AcDbEntity
  8
0
 62
     0
370
    -2
100
AcDbLine
 10
943.2931553316748
 20
707.2827254260048
 30
0.0
 11
941.4856602545253
 21
709.2372766241266
 31
0.0
  0
MTEXT
  5
2828
330
2826
100
AcDbEntity
  8
0
 62
     0
100
AcDbMText
 10
942.6385365103156
 20
708.3541806659575
 30
0.0
 40
0.3937
 41
0.0
 71
     5
 72
     1
  1
\A1;R3.2283
  7
\U+C2A4\U+D0C0\U+C77C2
 11
0.6789478916496848
 21
-0.734186461618878
 31
0.0
 73
     1
 44
1.0
  0
SOLID
  5
2829
330
2826
100
AcDbEntity
  8
0
 62
     0
100
AcDbTrace
 10
941.5101331365793
 20
709.2599082205147
 30
0.0
 11
941.4611873724712
 21
709.2146450277382
 31
0.0
 12
941.3498706761954
 22
709.3841139164502
 32
0.0
 13
941.3498706761954
 23
709.3841139164502
 33
0.0
  0
POINT
  5
282A
330
2826
100
AcDbEntity
  8
Defpoints
 62
     0
100
AcDbPoint
 10
941.3498706761954
 20
709.3841139164502
 30
0.0
  0
POINT
  5
282B
330
2826
100
AcDbEntity
  8
Defpoints
 62
     0
100
AcDbPoint
 10
943.5417453127238
 20
707.0139103949476
 30
0.0
  0
ENDBLK
  5
282D
330
2826
100
AcDbEntity
  8
0
100
AcDbBlockEnd
  0
BLOCK
  5
2835
330
282F
100
AcDbEntity
  8
0
100
AcDbBlockBegin
  2
*D5
 70
     1
 10
0.0
 20
0.0
 30
0.0
  3
*D5
  1

  0
LINE
  5
2830
330
282F
100
AcDbEntity
  8
0
 62
     0
370
    -2
100
AcDbLine
 10
944.5096588825228
 20
707.3597999692957
 30
0.0
 11
944.3941439644872
 21
710.1508438764191
 31
0.0
  0
MTEXT
  5
2831
330
282F
100
AcDbEntity
  8
0
 62
     0
100
AcDbMText
 10
944.7026755056777
 20
708.6656152775601
 30
0.0
 40
0.3937
 41
0.0
 71
     5
 72
     1
  1
\A1;R10.0787
  7
\U+C2A4\U+D0C0\U+C77C2
 11
0.0413523088799917
 21
-0.9991446274440422
 31
0.0
 73
     1
 44
1.0
  0
SOLID
  5
2832
330
282F
100
AcDbEntity
  8
0
 62
     0
100
AcDbTrace
 10
944.4274487854022
 20
710.1522222867149
 30
0.0
 11
944.3608391435724
 21
710.149465466123
 31
0.0
 12
944.3858735027111
 22
710.3506728019077
 32
0.0
 13
944.3858735027111
 23
710.3506728019077
 33
0.0
  0
POINT
  5
2833
330
282F
100
AcDbEntity
  8
Defpoints
 62
     0
100
AcDbPoint
 10
944.3858735027111
 20
710.3506728019077
 30
0.0
  0
POINT
  5
2834
330
282F
100
AcDbEntity
  8
Defpoints
 62
     0
100
AcDbPoint
 10
944.8026518452662
 20
700.2805738623947
 30
0.0
  0
ENDBLK
  5
2836
330
282F
100
AcDbEntity
  8
0
100
AcDbBlockEnd
  0
BLOCK
  5
283E
330
2838
100
AcDbEntity
  8
0
100
AcDbBlockBegin
  2
*D6
 70
     1
 10
0.0
 20
0.0
 30
0.0
  3
*D6
  1

  0
LINE
  5
2839
330
2838
100
AcDbEntity
  8
0
 62
     0
370
    -2
100
AcDbLine
 10
943.2108689838484
 20
706.299065944345
 30
0.0
 11
940.4257441739096
 21
706.5143554722851
 31
0.0
  0
MTEXT
  5
283A
330
2838
100
AcDbEntity
  8
0
 62
     0
100
AcDbMText
 10
941.9370338443583
 20
706.6451195146367
 30
0.0
 40
0.3937
 41
0.0
 71
     5
 72
     1
  1
\A1;R10.0787
  7
\U+C2A4\U+D0C0\U+C77C2
 11
0.9970256947623138
 21
-0.077069864303276
 31
0.0
 73
     1
 44
1.0
  0
SOLID
  5
283B
330
2838
100
AcDbEntity
  8
0
 62
     0
100
AcDbTrace
 10
940.4283131693864
 20
706.5475896621104
 30
0.0
 11
940.4231751784328
 21
706.4811212824597
 31
0.0
 12
940.2263390349569
 22
706.5297694451457
 32
0.0
 13
940.2263390349569
 23
706.5297694451457
 33
0.0
  0
POINT
  5
283C
330
2838
100
AcDbEntity
  8
Defpoints
 62
     0
100
AcDbPoint
 10
940.2263390349569
 20
706.5297694451457
 30
0.0
  0
POINT
  5
283D
330
2838
100
AcDbEntity
  8
Defpoints
 62
     0
100
AcDbPoint
 10
950.2750818452721
 20
705.7530038623951
 30
0.0
  0
ENDBLK
  5
283F
330
2838
100
AcDbEntity
  8
0
100
AcDbBlockEnd
  0
ENDSEC
  0
SECTION
  2
ENTITIES
  0
POINT
  5
37C
330
2
100
AcDbEntity
  8
0
 60
     1
100
AcDbPoint
 10
170.4737662487822
 20
-90.83440570086338
 30
0.0
1001
GENIUS_GENOBJ-N-TIT_13
1002
{
1000
OWNER
1000
GEN
1002
}
1001
GENIUS_GENOENT_13
1002
{
1000
MYREF
1005
37C
1002
}
1002
{
1000
GRP
1005
0
1002
}
1001
GENIUS_GENOLIS_13
1002
{
1000
ENT
1005
0
1005
0
1002
}
1001
GENIUS_GENTITLE_13
1002
{
1000
SCALE
1000
1:1
1002
}
1002
{
1000
BORDER
1000
GEN_A1
1002
}
1002
{
1000
TITLE
1000
GENTITLE
1002
}
1002
{
1000
UNCHG
1002
{
1000
GEN-TITLE-SCA
1000
GEN-TITLE-SIZ
1002
}
1002
}
1002
{
1000
HRA
1005
0
1002
}
1002
{
1000
HTIT
1005
0
1002
}
1002
{
1000
GENIUSID
1005
37C
1002
}
1001
GENIUS_GENODEF_13
1002
{
1000
HIER
1070
     1
1002
}
1002
{
1000
MANEDIT
1070
     0
1002
}
1002
{
1000
NOSEL
1070
     0
1002
}
1002
{
1000
BEHIND
1070
     0
1002
}
1002
{
1000
REACTOR
1002
}
  0
TEXT
  5
384
330
2
100
AcDbEntity
  8
0
 60
     1
100
AcDbText
 10
830.9999999999996
 20
-52.92726755347096
 30
0.0
 40
3.5
  1
!GENTITLE-INSERT
100
AcDbText
  0
TEXT
  5
385
330
2
100
AcDbEntity
  8
0
 60
     1
100
AcDbText
 10
10.0
 20
-47.92726755347096
 30
0.0
 40
3.5
  1
!GENTITLE-LL
100
AcDbText
  0
TEXT
  5
386
330
2
100
AcDbEntity
  8
0
 60
     1
100
AcDbText
 10
831.0
 20
526.072732446529
 30
0.0
 40
3.5
  1
!GENTITLE-RU
100
AcDbText
  0
TEXT
  5
387
330
2
100
AcDbEntity
  8
0
 60
     1
100
AcDbText
 10
841.0
 20
536.0727324465289
 30
0.0
 40
3.5
  1
!GENTITLE-MAX
100
AcDbText
  0
TEXT
  5
3FA
330
2
100
AcDbEntity
  8
0
 60
     1
100
AcDbText
 10
684.8812705983662
 20
141.8068575944205
 30
0.0
 40
3.5
  1
!GENTITLE-INSERT
100
AcDbText
  0
TEXT
  5
3FB
330
2
100
AcDbEntity
  8
0
 60
     1
100
AcDbText
 10
-136.1187294016335
 20
146.8068575944205
 30
0.0
 40
3.5
  1
!GENTITLE-LL
100
AcDbText
  0
TEXT
  5
3FC
330
2
100
AcDbEntity
  8
0
 60
     1
100
AcDbText
 10
684.8812705983664
 20
720.8068575944203
 30
0.0
 40
3.5
  1
!GENTITLE-RU
100
AcDbText
  0
TEXT
  5
3FD
330
2
100
AcDbEntity
  8
0
 60
     1
100
AcDbText
 10
694.8812705983664
 20
730.8068575944203
 30
0.0
 40
3.5
  1
!GENTITLE-MAX
100
AcDbText
  0
LINE
  5
27BD
330
2
100
AcDbEntity
  8
\U+7C97\U+5B9E\U+7EBF
100
AcDbLine
 10
940.4325818452715
 20
701.1270288623973
 30
0.0
 11
940.4325818452715
 21
705.7530038623951
 31
0.0
  0
ARC
  5
27BE
330
2
100
AcDbEntity
  8
\U+6807\U+6CE8\U+7EBF
 48
3.0
100
AcDbCircle
 10
944.8026518452671
 20
700.2805738623951
 30
0.0
 40
9.842499999999999
100
AcDbArc
 50
90.0
 51
100.6065510418437
  0
ARC
  5
27BF
330
2
100
AcDbEntity
  8
\U+6807\U+6CE8\U+7EBF
 48
3.0
100
AcDbCircle
 10
950.2750818452721
 20
705.7530038623951
 30
0.0
 40
9.842499999999999
100
AcDbArc
 50
169.3934489582259
 51
180.0
  0
ARC
  5
27C0
330
2
100
AcDbEntity
  8
\U+6807\U+6CE8\U+7EBF
 48
3.0
100
AcDbCircle
 10
943.5417453127238
 20
707.0139103949478
 30
0.0
 40
2.992119999999999
100
AcDbArc
 50
100.6065510418437
 51
169.3934489582259
  0
LINE
  5
27C1
330
2
100
AcDbEntity
  8
\U+7C97\U+5B9E\U+7EBF
100
AcDbLine
 10
940.4325818452715
 20
701.1270288623973
 30
0.0
 11
940.4325818452715
 21
696.5010538623998
 31
0.0
  0
ARC
  5
27C2
330
2
100
AcDbEntity
  8
\U+6807\U+6CE8\U+7EBF
 48
3.0
100
AcDbCircle
 10
950.2750818452721
 20
696.5010538623998
 30
0.0
 40
9.842499999999999
100
AcDbArc
 50
180.0
 51
190.6065510417741
  0
ARC
  5
27C3
330
2
100
AcDbEntity
  8
\U+6807\U+6CE8\U+7EBF
 48
3.0
100
AcDbCircle
 10
943.5417453127238
 20
695.2401473298472
 30
0.0
 40
2.992119999999999
100
AcDbArc
 50
190.6065510417741
 51
259.3934489581563
  0
ARC
  5
27C4
330
2
100
AcDbEntity
  8
\U+6807\U+6CE8\U+7EBF
 48
3.0
100
AcDbCircle
 10
944.8026518452671
 20
701.9734838623998
 30
0.0
 40
9.842499999999999
100
AcDbArc
 50
259.3934489581563
 51
270.0
  0
LINE
  5
27C6
330
2
100
AcDbEntity
  8
\U+7C97\U+5B9E\U+7EBF
100
AcDbLine
 10
969.7238618452759
 20
701.1270288623973
 30
0.0
 11
969.7238618452759
 21
705.7530038623951
 31
0.0
  0
ARC
  5
27C7
330
2
100
AcDbEntity
  8
\U+6807\U+6CE8\U+7EBF
 48
3.0
100
AcDbCircle
 10
965.3537918452807
 20
700.2805738623951
 30
0.0
 40
9.842499999999999
100
AcDbArc
 50
79.39344895815631
 51
90.0
  0
ARC
  5
27C8
330
2
100
AcDbEntity
  8
\U+6807\U+6CE8\U+7EBF
 48
3.0
100
AcDbCircle
 10
959.8813618452764
 20
705.7530038623951
 30
0.0
 40
9.842499999999999
100
AcDbArc
 50
0.000000000000007
 51
10.60655104177408
  0
ARC
  5
27C9
330
2
100
AcDbEntity
  8
\U+6807\U+6CE8\U+7EBF
 48
3.0
100
AcDbCircle
 10
966.6146983778244
 20
707.0139103949478
 30
0.0
 40
2.992119999999999
100
AcDbArc
 50
10.60655104177408
 51
79.39344895815631
  0
LINE
  5
27CA
330
2
100
AcDbEntity
  8
\U+7C97\U+5B9E\U+7EBF
100
AcDbLine
 10
969.7238618452759
 20
701.1270288623973
 30
0.0
 11
969.7238618452759
 21
696.5010538623998
 31
0.0
  0
ARC
  5
27CB
330
2
100
AcDbEntity
  8
\U+6807\U+6CE8\U+7EBF
 48
3.0
100
AcDbCircle
 10
959.8813618452764
 20
696.5010538623998
 30
0.0
 40
9.842499999999999
100
AcDbArc
 50
349.393448958226
 51
0.000000000000007
  0
ARC
  5
27CC
330
2
100
AcDbEntity
  8
\U+6807\U+6CE8\U+7EBF
 48
3.0
100
AcDbCircle
 10
966.6146983778244
 20
695.2401473298472
 30
0.0
 40
2.992119999999999
100
AcDbArc
 50
280.6065510418437
 51
349.393448958226
  0
ARC
  5
27CD
330
2
100
AcDbEntity
  8
\U+6807\U+6CE8\U+7EBF
 48
3.0
100
AcDbCircle
 10
965.3537918452807
 20
701.9734838623998
 30
0.0
 40
9.842499999999999
100
AcDbArc
 50
270.0
 51
280.6065510418437
  0
LINE
  5
27CE
330
2
100
AcDbEntity
  8
0
100
AcDbLine
 10
944.8026518452671
 20
710.1230738623954
 30
0.0
 11
965.3537918452807
 21
710.1230738623954
 31
0.0
  0
LINE
  5
27CF
330
2
100
AcDbEntity
  8
0
100
AcDbLine
 10
944.8026518452671
 20
692.1309838623997
 30
0.0
 11
965.3537918452807
 21
692.1309838623997
 31
0.0
  0
MTEXT
  5
28BF
330
2
100
AcDbEntity
  8
0
100
AcDbMText
 10
952.4690246120998
 20
697.316164511929
 30
0.0
 40
0.3937
 41
14.93397349915023
 71
     1
 72
     5
  3
{\fTimes New Roman|b0|i0|c0|p18;\H1.27x;Model : GOR-3221D   \H0.58x;IMPORTANT ! \PThis template is provided as a guide for Undermount cutout only. \PBefore beginning to cut countertop, compare physical dimension of the template and the cutout line wi
  1
th the actual sink unit for an accurate cut.\PHamatUSA is not responsible for any countertop, installation or labor charges due to failure to follow these instructions.\P\Lwww.Hamatusa.com }
  7
\U+C2A4\U+D0C0\U+C77C2
 73
     1
 44
1.0
  0
VIEWPORT
  5
74
330
C
100
AcDbEntity
 67
     1
  8
0
100
AcDbViewport
 10
490.633788896909
 20
297.0009369707932
 30
0.0
 40
1115.370256166983
 41
599.3755656108596
 68
     1
 69
     1
 12
490.633788896909
 22
297.0009369707932
 13
0.0
 23
0.0
 14
10.0
 24
10.0
 15
10.0
 25
10.0
 16
0.0
 26
0.0
 36
1.0
 17
0.0
 27
0.0
 37
0.0
 42
50.0
 43
0.0
 44
0.0
 45
599.3755656108596
 50
0.0
 51
0.0
 72
  1000
 90
    32800
  1

281
     0
 71
     1
 74
     0
110
0.0
120
0.0
130
0.0
111
1.0
121
0.0
131
0.0
112
0.0
122
1.0
132
0.0
 79
     0
146
0.0
170
     0
  0
ENDSEC
  0
SECTION
  2
OBJECTS
  0
DICTIONARY
  5
7
330
0
100
AcDbDictionary
281
     1
  3
ACAD_COLOR
350
5A3
  3
ACAD_GROUP
350
20
  3
ACAD_LAYOUT
350
B
  3
ACAD_MATERIAL
350
5A2
  3
ACAD_MLINESTYLE
350
21
  3
ACAD_PLOTSETTINGS
350
22
  3
ACAD_PLOTSTYLENAME
350
6
  3
ACAD_TABLESTYLE
350
5C3
  3
ACAD_VISUALSTYLE
350
28A4
  3
AcDbVariableDictionary
350
81
  0
DICTIONARY
  5
1F2B
330
10
100
AcDbDictionary
280
     1
281
     1
  3
ACAD_LAYERSTATES
360
1F2C
  0
DICTIONARY
  5
95E
330
2
100
AcDbDictionary
280
     1
281
     1
  3
ACAD_SORTENTS
360
95F
  0
DICTIONARY
  5
5A3
102
{ACAD_REACTORS
330
7
102
}
330
7
100
AcDbDictionary
281
     1
  0
DICTIONARY
  5
20
102
{ACAD_REACTORS
330
7
102
}
330
7
100
AcDbDictionary
281
     1
  0
DICTIONARY
  5
B
102
{ACAD_REACTORS
330
7
102
}
330
7
100
AcDbDictionary
281
     1
  3
DIN A1 Title Block
350
F
  3
Model
350
A
  0
DICTIONARY
  5
5A2
102
{ACAD_REACTORS
330
7
102
}
330
7
100
AcDbDictionary
281
     1
  3
ByBlock
350
28A2
  3
ByLayer
350
28A1
  3
Global
350
28A3
  0
DICTIONARY
  5
21
102
{ACAD_REACTORS
330
7
102
}
330
7
100
AcDbDictionary
281
     1
  3
Standard
350
23
  0
DICTIONARY
  5
22
102
{ACAD_REACTORS
330
7
102
}
330
7
100
AcDbDictionary
281
     1
  0
ACDBDICTIONARYWDFLT
  5
6
102
{ACAD_REACTORS
330
7
102
}
330
7
100
AcDbDictionary
281
     1
  3
Normal
350
5
100
AcDbDictionaryWithDefault
340
5
  0
DICTIONARY
  5
5C3
102
{ACAD_REACTORS
330
7
102
}
330
7
100
AcDbDictionary
281
     1
  3
Standard
350
5C4
  0
DICTIONARY
  5
28A4
102
{ACAD_REACTORS
330
7
102
}
330
7
100
AcDbDictionary
281
     1
  3
2dWireframe
350
28AA
  3
3D Hidden
350
28AC
  3
3dWireframe
350
28AB
  3
Basic
350
28A9
  3
Brighten
350
28B0
  3
ColorChange
350
28B4
  3
Conceptual
350
28AD
  3
Dim
350
28AF
  3
Facepattern
350
28B3
  3
Flat
350
28A5
  3
FlatWithEdges
350
28A6
  3
Gouraud
350
28A7
  3
GouraudWithEdges
350
28A8
  3
Linepattern
350
28B2
  3
Realistic
350
28AE
  3
Thicken
350
28B1
  0
DICTIONARY
  5
81
102
{ACAD_REACTORS
330
7
102
}
330
7
100
AcDbDictionary
281
     1
  3
CTABLESTYLE
350
5EE
  3
DIMASSOC
350
82
  3
PROJECTNAME
350
287B
  0
DICTIONARY
  5
1F2C
102
{ACAD_REACTORS
330
1F2B
102
}
330
1F2B
100
AcDbDictionary
281
     1
  0
SORTENTSTABLE
  5
95F
102
{ACAD_REACTORS
330
95E
102
}
330
95E
100
AcDbSortentsTable
330
2
331
27C7
  5
27D0
331
27C6
  5
27CE
331
27C4
  5
27CC
331
27C3
  5
27CA
331
27C2
  5
27C8
331
27C1
  5
27C6
331
27C0
  5
27C3
331
27BF
  5
27C1
331
27BE
  5
27BF
331
27BD
  5
27BD
331
387
  5
387
331
386
  5
386
331
385
  5
385
331
384
  5
384
331
3FD
  5
3FD
331
3FC
  5
3FC
331
27CF
  5
27EC
331
27CE
  5
27EA
331
3FB
  5
3FB
331
3FA
  5
3FA
331
27CD
  5
27E8
331
27CC
  5
27E6
331
27CB
  5
27E4
331
37C
  5
37C
331
27CA
  5
27E2
331
27C9
  5
27E0
331
27C8
  5
27DE
  0
LAYOUT
  5
F
102
{ACAD_REACTORS
330
B
102
}
330
B
100
AcDbPlotSettings
  1

  2
none_device
  4
ISO_A1_(841.00_x_594.00_MM)
  6

 40
7.549999999999998
 41
20.05
 42
7.549999999999998
 43
20.05
 44
841.0
 45
594.0
 46
-7.57
 47
-20.06
 48
0.0
 49
0.0
140
0.0
141
0.0
142
1.0
143
1.0
 70
   688
 72
     1
 73
     0
 74
     5
  7

 75
    16
147
1.0
 76
     0
 77
     2
 78
   300
148
0.0128164049386896
149
0.0090630292066862
100
AcDbLayout
  1
DIN A1 Title Block
 70
     1
 71
     1
 10
0.0071835950613108
 20
0.0009369707933118
 11
841.0071835950612
 21
594.0009369707931
 12
0.0
 22
0.0
 32
0.0
 14
1.000000000000000E+20
 24
1.000000000000000E+20
 34
1.000000000000000E+20
 15
-1.000000000000000E+20
 25
-1.000000000000000E+20
 35
-1.000000000000000E+20
146
0.0
 13
0.0
 23
0.0
 33
0.0
 16
1.0
 26
0.0
 36
0.0
 17
0.0
 27
1.0
 37
0.0
 76
     0
330
C
331
74
  0
LAYOUT
  5
A
102
{ACAD_REACTORS
330
B
102
}
330
B
100
AcDbPlotSettings
  1

  2
none_device
  4
ISO_A4_(297.00_x_210.00_MM)
  6

 40
7.5
 41
20.0
 42
7.5
 43
20.0
 44
297.0
 45
210.0
 46
0.0
 47
0.0
 48
969.1120635225747
 49
1410.089773188028
140
997.7071895623687
141
1431.243016253039
142
1.0
143
20.0
 70
 11952
 72
     1
 73
     0
 74
     4
  7

 75
    22
147
0.05
 76
     0
 77
     2
 78
   300
148
-969.1120635225747
149
-1410.089773188028
100
AcDbLayout
  1
Model
 70
     1
 71
     0
 10
0.0
 20
0.0
 11
12.0
 21
9.0
 12
0.0
 22
0.0
 32
0.0
 14
0.0
 24
0.0
 34
0.0
 15
0.0
 25
0.0
 35
0.0
146
0.0
 13
0.0
 23
0.0
 33
0.0
 16
1.0
 26
0.0
 36
0.0
 17
0.0
 27
1.0
 37
0.0
 76
     0
330
2
331
2894
1001
ACAD_PSEXT
1000
\U+C5C6\U+C74C
1000
\U+C5C6\U+C74C
1000
\U+C801\U+C6A9 \U+AC00\U+B2A5\U+D558\U+C9C0 \U+C54A\U+C74C
1000
\U+BC30\U+CE58\U+AC00 \U+C0C8\U+B85C\U+C6B4 \U+D50C\U+B85C\U+D130 \U+AD6C\U+C131\U+C744 \U+C120\U+D0DD\U+D560 \U+B54C\U+AE4C\U+C9C0 \U+D50C\U+B86F\U+B418\U+C9C0 \U+C54A\U+C2B5\U+B2C8\U+B2E4.
1070
     0
  0
MATERIAL
  5
28A2
102
{ACAD_XDICTIONARY
360
28C4
102
}
102
{ACAD_REACTORS
330
5A2
102
}
330
5A2
100
AcDbMaterial
  1
ByBlock
  0
MATERIAL
  5
28A1
102
{ACAD_XDICTIONARY
360
28C2
102
}
102
{ACAD_REACTORS
330
5A2
102
}
330
5A2
100
AcDbMaterial
  1
ByLayer
  0
MATERIAL
  5
28A3
102
{ACAD_XDICTIONARY
360
28C6
102
}
102
{ACAD_REACTORS
330
5A2
102
}
330
5A2
100
AcDbMaterial
  1
Global
  0
MLINESTYLE
  5
23
102
{ACAD_REACTORS
330
21
102
}
330
21
100
AcDbMlineStyle
  2
STANDARD
 70
     0
  3

 62
   256
 51
90.0
 52
90.0
 71
     2
 49
0.5
 62
   256
  6
BYLAYER
 49
-0.5
 62
   256
  6
BYLAYER
  0
ACDBPLACEHOLDER
  5
5
102
{ACAD_REACTORS
330
6
102
}
330
6
  0
TABLESTYLE
  5
5C4
102
{ACAD_XDICTIONARY
360
28C0
102
}
102
{ACAD_REACTORS
330
5C3
102
}
330
5C3
100
AcDbTableStyle
  3
Standard
 70
     0
 71
     0
 40
1.5
 41
1.5
280
     0
281
     0
  7
Standard
140
4.5
170
     2
 62
     0
 63
     7
283
     0
274
    -2
284
     1
 64
     0
275
    -2
285
     1
 65
     0
276
    -2
286
     1
 66
     0
277
    -2
287
     1
 67
     0
278
    -2
288
     1
 68
     0
279
    -2
289
     1
 69
     0
  7
Standard
140
6.0
170
     5
 62
     0
 63
     7
283
     0
274
    -2
284
     1
 64
     0
275
    -2
285
     1
 65
     0
276
    -2
286
     1
 66
     0
277
    -2
287
     1
 67
     0
278
    -2
288
     1
 68
     0
279
    -2
289
     1
 69
     0
  7
Standard
140
4.5
170
     5
 62
     0
 63
     7
283
     0
274
    -2
284
     1
 64
     0
275
    -2
285
     1
 65
     0
276
    -2
286
     1
 66
     0
277
    -2
287
     1
 67
     0
278
    -2
288
     1
 68
     0
279
    -2
289
     1
 69
     0
  0
VISUALSTYLE
  5
28AA
102
{ACAD_REACTORS
330
28A4
102
}
330
28A4
100
AcDbVisualStyle
  2
2dWireframe
 70
     4
 71
     0
 72
     2
 73
     0
 90
        0
 40
-0.6
 41
-30.0
 62
     5
 63
     7
421
 16777215
 74
     1
 91
        4
 64
     7
 65
   257
 75
     1
175
     1
 42
1.0
 92
        0
 66
   257
 43
1.0
 76
     1
 77
     6
 78
     2
 67
     7
 79
     5
170
     0
171
     0
290
     0
174
     0
 93
        1
 44
0.0
173
     0
291
     0
 45
0.0
1001
ACAD
1000
AcDbSavedByObjectVersion
1070
     0
  0
VISUALSTYLE
  5
28AC
102
{ACAD_REACTORS
330
28A4
102
}
330
28A4
100
AcDbVisualStyle
  2
3D Hidden
 70
     6
 71
     1
 72
     2
 73
     2
 90
        0
 40
-0.6
 41
-30.0
 62
     5
 63
     7
421
 16777215
 74
     2
 91
        2
 64
     7
 65
   257
 75
     2
175
     1
 42
40.0
 92
        0
 66
   257
 43
1.0
 76
     1
 77
     6
 78
     2
 67
     7
 79
     3
170
     0
171
     0
290
     0
174
     0
 93
        1
 44
0.0
173
     0
291
     0
 45
0.0
1001
ACAD
1000
AcDbSavedByObjectVersion
1070
     0
  0
VISUALSTYLE
  5
28AB
102
{ACAD_REACTORS
330
28A4
102
}
330
28A4
100
AcDbVisualStyle
  2
3dWireframe
 70
     5
 71
     0
 72
     2
 73
     0
 90
        0
 40
-0.6
 41
-30.0
 62
     5
 63
     7
421
 16777215
 74
     1
 91
        4
 64
     7
 65
   257
 75
     1
175
     1
 42
1.0
 92
        0
 66
   257
 43
1.0
 76
     1
 77
     6
 78
     2
 67
     7
 79
     5
170
     0
171
     0
290
     0
174
     0
 93
        1
 44
0.0
173
     0
291
     0
 45
0.0
1001
ACAD
1000
AcDbSavedByObjectVersion
1070
     0
  0
VISUALSTYLE
  5
28A9
102
{ACAD_REACTORS
330
28A4
102
}
330
28A4
100
AcDbVisualStyle
  2
Basic
 70
     7
 71
     1
 72
     0
 73
     1
 90
        0
 40
-0.6
 41
-30.0
 62
     5
 63
     7
421
 16777215
 74
     0
 91
        4
 64
     7
 65
   257
 75
     1
175
     1
 42
1.0
 92
        8
 66
     7
 43
1.0
 76
     1
 77
     6
 78
     2
 67
     7
 79
     5
170
     0
171
     0
290
     0
174
     0
 93
        1
 44
0.0
173
     0
291
     1
 45
0.0
1001
ACAD
1000
AcDbSavedByObjectVersion
1070
     0
  0
VISUALSTYLE
  5
28B0
102
{ACAD_REACTORS
330
28A4
102
}
330
28A4
100
AcDbVisualStyle
  2
Brighten
 70
    12
 71
     2
 72
     2
 73
     0
 90
        0
 40
-0.6
 41
-30.0
 62
     5
 63
     7
421
 16777215
 74
     1
 91
        4
 64
     7
 65
   257
 75
     1
175
     1
 42
1.0
 92
        8
 66
     7
 43
1.0
 76
     1
 77
     6
 78
     2
 67
     7
 79
     5
170
     0
171
     0
290
     0
174
     0
 93
        1
 44
50.0
173
     0
291
     1
 45
0.0
1001
ACAD
1000
AcDbSavedByObjectVersion
1070
     0
  0
VISUALSTYLE
  5
28B4
102
{ACAD_REACTORS
330
28A4
102
}
330
28A4
100
AcDbVisualStyle
  2
ColorChange
 70
    16
 71
     2
 72
     2
 73
     3
 90
        0
 40
-0.6
 41
-30.0
 62
     5
 63
     8
421
  8421504
 74
     1
 91
        4
 64
     7
 65
   257
 75
     1
175
     1
 42
1.0
 92
        8
 66
     8
424
  8421504
 43
1.0
 76
     1
 77
     6
 78
     2
 67
     7
 79
     5
170
     0
171
     0
290
     0
174
     0
 93
        1
 44
0.0
173
     0
291
     1
 45
0.0
1001
ACAD
1000
AcDbSavedByObjectVersion
1070
     0
  0
VISUALSTYLE
  5
28AD
102
{ACAD_REACTORS
330
28A4
102
}
330
28A4
100
AcDbVisualStyle
  2
Conceptual
 70
     9
 71
     3
 72
     2
 73
     0
 90
        0
 40
-0.6
 41
-30.0
 62
     5
 63
     7
421
 16777215
 74
     2
 91
        2
 64
     7
 65
   257
 75
     1
175
     1
 42
40.0
 92
        8
 66
     7
 43
1.0
 76
     1
 77
     6
 78
     2
 67
     7
 79
     3
170
     0
171
     0
290
     0
174
     0
 93
        1
 44
0.0
173
     0
291
     0
 45
0.0
1001
ACAD
1000
AcDbSavedByObjectVersion
1070
     0
  0
VISUALSTYLE
  5
28AF
102
{ACAD_REACTORS
330
28A4
102
}
330
28A4
100
AcDbVisualStyle
  2
Dim
 70
    11
 71
     2
 72
     2
 73
     0
 90
        0
 40
-0.6
 41
-30.0
 62
     5
 63
     7
421
 16777215
 74
     1
 91
        4
 64
     7
 65
   257
 75
     1
175
     1
 42
1.0
 92
        8
 66
     7
 43
1.0
 76
     1
 77
     6
 78
     2
 67
     7
 79
     5
170
     0
171
     0
290
     0
174
     0
 93
        1
 44
-50.0
173
     0
291
     1
 45
0.0
1001
ACAD
1000
AcDbSavedByObjectVersion
1070
     0
  0
VISUALSTYLE
  5
28B3
102
{ACAD_REACTORS
330
28A4
102
}
330
28A4
100
AcDbVisualStyle
  2
Facepattern
 70
    15
 71
     2
 72
     2
 73
     0
 90
        0
 40
-0.6
 41
-30.0
 62
     5
 63
     7
421
 16777215
 74
     1
 91
        4
 64
     7
 65
   257
 75
     1
175
     1
 42
1.0
 92
        8
 66
     7
 43
1.0
 76
     1
 77
     6
 78
     2
 67
     7
 79
     5
170
     0
171
     0
290
     0
174
     0
 93
        1
 44
0.0
173
     0
291
     1
 45
0.0
1001
ACAD
1000
AcDbSavedByObjectVersion
1070
     0
  0
VISUALSTYLE
  5
28A5
102
{ACAD_REACTORS
330
28A4
102
}
330
28A4
100
AcDbVisualStyle
  2
Flat
 70
     0
 71
     2
 72
     1
 73
     1
 90
        2
 40
-0.6
 41
30.0
 62
     5
 63
     7
421
 16777215
 74
     0
 91
        4
 64
     7
 65
   257
 75
     1
175
     1
 42
1.0
 92
        8
 66
     7
 43
1.0
 76
     1
 77
     6
 78
     2
 67
     7
 79
     5
170
     0
171
     0
290
     0
174
     0
 93
       13
 44
0.0
173
     0
291
     1
 45
0.0
1001
ACAD
1000
AcDbSavedByObjectVersion
1070
     0
  0
VISUALSTYLE
  5
28A6
102
{ACAD_REACTORS
330
28A4
102
}
330
28A4
100
AcDbVisualStyle
  2
FlatWithEdges
 70
     1
 71
     2
 72
     1
 73
     1
 90
        2
 40
-0.6
 41
30.0
 62
     5
 63
     7
421
 16777215
 74
     1
 91
        4
 64
     7
 65
   257
 75
     1
175
     1
 42
1.0
 92
        0
 66
   257
 43
1.0
 76
     1
 77
     6
 78
     2
 67
     7
 79
     5
170
     0
171
     0
290
     0
174
     0
 93
       13
 44
0.0
173
     0
291
     1
 45
0.0
1001
ACAD
1000
AcDbSavedByObjectVersion
1070
     0
  0
VISUALSTYLE
  5
28A7
102
{ACAD_REACTORS
330
28A4
102
}
330
28A4
100
AcDbVisualStyle
  2
Gouraud
 70
     2
 71
     2
 72
     2
 73
     1
 90
        2
 40
-0.6
 41
30.0
 62
     5
 63
     7
421
 16777215
 74
     0
 91
        4
 64
     7
 65
   257
 75
     1
175
     1
 42
1.0
 92
        0
 66
     7
 43
1.0
 76
     1
 77
     6
 78
     2
 67
     7
 79
     5
170
     0
171
     0
290
     0
174
     0
 93
       13
 44
0.0
173
     0
291
     1
 45
0.0
1001
ACAD
1000
AcDbSavedByObjectVersion
1070
     0
  0
VISUALSTYLE
  5
28A8
102
{ACAD_REACTORS
330
28A4
102
}
330
28A4
100
AcDbVisualStyle
  2
GouraudWithEdges
 70
     3
 71
     2
 72
     2
 73
     1
 90
        2
 40
-0.6
 41
30.0
 62
     5
 63
     7
421
 16777215
 74
     1
 91
        4
 64
     7
 65
   257
 75
     1
175
     1
 42
1.0
 92
        0
 66
   257
 43
1.0
 76
     1
 77
     6
 78
     2
 67
     7
 79
     5
170
     0
171
     0
290
     0
174
     0
 93
       13
 44
0.0
173
     0
291
     1
 45
0.0
1001
ACAD
1000
AcDbSavedByObjectVersion
1070
     0
  0
VISUALSTYLE
  5
28B2
102
{ACAD_REACTORS
330
28A4
102
}
330
28A4
100
AcDbVisualStyle
  2
Linepattern
 70
    14
 71
     2
 72
     2
 73
     0
 90
        0
 40
-0.6
 41
-30.0
 62
     5
 63
     7
421
 16777215
 74
     1
 91
        4
 64
     7
 65
   257
 75
     7
175
     7
 42
1.0
 92
        8
 66
     7
 43
1.0
 76
     1
 77
     6
 78
     2
 67
     7
 79
     5
170
     0
171
     0
290
     0
174
     0
 93
        1
 44
0.0
173
     0
291
     1
 45
0.0
1001
ACAD
1000
AcDbSavedByObjectVersion
1070
     0
  0
VISUALSTYLE
  5
28AE
102
{ACAD_REACTORS
330
28A4
102
}
330
28A4
100
AcDbVisualStyle
  2
Realistic
 70
     8
 71
     2
 72
     2
 73
     0
 90
        0
 40
-0.6
 41
-30.0
 62
     5
 63
     7
421
 16777215
 74
     1
 91
        0
 64
     7
 65
   257
 75
     1
175
     1
 42
1.0
 92
        8
 66
     8
424
  7895160
 43
1.0
 76
     1
 77
     6
 78
     2
 67
     7
 79
     5
170
     0
171
     0
290
     0
174
     0
 93
       13
 44
0.0
173
     0
291
     0
 45
0.0
1001
ACAD
1000
AcDbSavedByObjectVersion
1070
     0
  0
VISUALSTYLE
  5
28B1
102
{ACAD_REACTORS
330
28A4
102
}
330
28A4
100
AcDbVisualStyle
  2
Thicken
 70
    13
 71
     2
 72
     2
 73
     0
 90
        0
 40
-0.6
 41
-30.0
 62
     5
 63
     7
421
 16777215
 74
     1
 91
        4
 64
     7
 65
   257
 75
     1
175
     1
 42
1.0
 92
       12
 66
     7
 43
1.0
 76
     1
 77
     6
 78
     2
 67
     7
 79
     5
170
     0
171
     0
290
     0
174
     0
 93
        1
 44
0.0
173
     0
291
     1
 45
0.0
1001
ACAD
1000
AcDbSavedByObjectVersion
1070
     0
  0
DICTIONARYVAR
  5
5EE
102
{ACAD_REACTORS
330
81
102
}
330
81
100
DictionaryVariables
280
     0
  1
STANDARD
  0
DICTIONARYVAR
  5
82
102
{ACAD_REACTORS
330
81
102
}
330
81
100
DictionaryVariables
280
     0
  1
1
  0
DICTIONARYVAR
  5
287B
102
{ACAD_REACTORS
330
81
102
}
330
81
100
DictionaryVariables
280
     0
  1

  0
DICTIONARY
  5
28C4
330
28A2
100
AcDbDictionary
280
     1
281
     1
  3
ACAD_XREC_ROUNDTRIP
360
28C5
  0
DICTIONARY
  5
28C2
330
28A1
100
AcDbDictionary
280
     1
281
     1
  3
ACAD_XREC_ROUNDTRIP
360
28C3
  0
DICTIONARY
  5
28C6
330
28A3
100
AcDbDictionary
280
     1
281
     1
  3
ACAD_XREC_ROUNDTRIP
360
28C7
  0
DICTIONARY
  5
28C0
330
5C4
100
AcDbDictionary
280
     1
281
     1
  3
ACAD_XREC_ROUNDTRIP
360
28C1
  0
XRECORD
  5
28C5
102
{ACAD_REACTORS
330
28C4
102
}
330
28C4
100
AcDbXrecord
280
     1
102
MATERIAL
148
0.0
149
0.0
149
0.0
 93
        0
 94
       63
282
     0
 72
     1
 77
     1
171
     1
175
     1
179
     1
273
     0
  0
XRECORD
  5
28C3
102
{ACAD_REACTORS
330
28C2
102
}
330
28C2
100
AcDbXrecord
280
     1
102
MATERIAL
148
0.0
149
0.0
149
0.0
 93
        0
 94
       63
282
     0
 72
     1
 77
     1
171
     1
175
     1
179
     1
273
     0
  0
XRECORD
  5
28C7
102
{ACAD_REACTORS
330
28C6
102
}
330
28C6
100
AcDbXrecord
280
     1
102
MATERIAL
148
0.0
149
0.0
149
0.0
 93
        0
 94
       63
282
     0
 72
     1
 77
     1
171
     1
175
     1
179
     1
273
     0
  0
XRECORD
  5
28C1
102
{ACAD_REACTORS
330
28C0
102
}
330
28C0
100
AcDbXrecord
280
     1
102
ACAD_ROUNDTRIP_PRE2007_TABLESTYLE
 90
        4
 91
        0
  1

 92
        4
 93
        0
  2

 94
        4
 95
        0
  3

  0
ENDSEC
  0
EOF
