  0
SECTION
  2
HEADER
  9
$ACADVER
  1
AC1018
  9
$ACADMAINTVER
 70
   104
  9
$DWGCODEPAGE
  3
ANSI_1252
  9
$LASTSAVEDBY
  1
user
  9
$INSBASE
 10
0.0
 20
0.0
 30
0.0
  9
$EXTMIN
 10
883.728599976029
 20
604.8263051465237
 30
0.0
  9
$EXTMAX
 10
913.1448701522392
 20
620.5743054865699
 30
0.0
  9
$LIMMIN
 10
0.0
 20
0.0
  9
$LIMMAX
 10
420.0
 20
297.0
  9
$ORTHOMODE
 70
     0
  9
$REGENMODE
 70
     1
  9
$FILLMODE
 70
     1
  9
$QTEXTMODE
 70
     0
  9
$MIRRTEXT
 70
     0
  9
$LTSCALE
 40
1.0
  9
$ATTMODE
 70
     1
  9
$TEXTSIZE
 40
0.3937
  9
$TRACEWID
 40
1.0
  9
$TEXTSTYLE
  7
\U+C2A4\U+D0C0\U+C77C2
  9
$CLAYER
  8
0
  9
$CELTYPE
  6
ByLayer
  9
$CECOLOR
 62
   256
  9
$CELTSCALE
 40
1.0
  9
$DISPSILH
 70
     0
  9
$DIMSCALE
 40
1.0
  9
$DIMASZ
 40
0.2
  9
$DIMEXO
 40
0.1
  9
$DIMDLI
 40
0.039
  9
$DIMRND
 40
0.0
  9
$DIMDLE
 40
0.0
  9
$DIMEXE
 40
0.2
  9
$DIMTP
 40
0.0
  9
$DIMTM
 40
0.0
  9
$DIMTXT
 40
2.5
  9
$DIMCEN
 40
0.039
  9
$DIMTSZ
 40
0.0
  9
$DIMTOL
 70
     0
  9
$DIMLIM
 70
     0
  9
$DIMTIH
 70
     0
  9
$DIMTOH
 70
     0
  9
$DIMSE1
 70
     0
  9
$DIMSE2
 70
     0
  9
$DIMTAD
 70
     1
  9
$DIMZIN
 70
     8
  9
$DIMBLK
  1

  9
$DIMASO
 70
     1
  9
$DIMSHO
 70
     1
  9
$DIMPOST
  1

  9
$DIMAPOST
  1

  9
$DIMALT
 70
     0
  9
$DIMALTD
 70
     2
  9
$DIMALTF
 40
0.0394
  9
$DIMLFAC
 40
1.0
  9
$DIMTOFL
 70
     1
  9
$DIMTVP
 40
1.0
  9
$DIMTIX
 70
     0
  9
$DIMSOXD
 70
     0
  9
$DIMSAH
 70
     0
  9
$DIMBLK1
  1

  9
$DIMBLK2
  1

  9
$DIMSTYLE
  2
DIN
  9
$DIMCLRD
 70
     0
  9
$DIMCLRE
 70
     0
  9
$DIMCLRT
 70
     0
  9
$DIMTFAC
 40
1.0
  9
$DIMGAP
 40
0.05
  9
$DIMJUST
 70
     0
  9
$DIMSD1
 70
     0
  9
$DIMSD2
 70
     0
  9
$DIMTOLJ
 70
     1
  9
$DIMTZIN
 70
     0
  9
$DIMALTZ
 70
     0
  9
$DIMALTTZ
 70
     0
  9
$DIMUPT
 70
     0
  9
$DIMDEC
 70
     4
  9
$DIMTDEC
 70
     4
  9
$DIMALTU
 70
     8
  9
$DIMALTTD
 70
     2
  9
$DIMTXSTY
  7
\U+C2A4\U+D0C0\U+C77C2
  9
$DIMAUNIT
 70
     0
  9
$DIMADEC
 70
     0
  9
$DIMALTRND
 40
0.0
  9
$DIMAZIN
 70
     0
  9
$DIMDSEP
 70
    46
  9
$DIMATFIT
 70
     3
  9
$DIMFRAC
 70
     0
  9
$DIMLDRBLK
  1

  9
$DIMLUNIT
 70
     6
  9
$DIMLWD
 70
    -2
  9
$DIMLWE
 70
    -2
  9
$DIMTMOVE
 70
     0
  9
$LUNITS
 70
     3
  9
$LUPREC
 70
     4
  9
$SKETCHINC
 40
1.0
  9
$FILLETRAD
 40
0.59
  9
$AUNITS
 70
     0
  9
$AUPREC
 70
     0
  9
$MENU
  1
.
  9
$ELEVATION
 40
0.0
  9
$PELEVATION
 40
0.0
  9
$THICKNESS
 40
0.0
  9
$LIMCHECK
 70
     0
  9
$CHAMFERA
 40
0.0
  9
$CHAMFERB
 40
0.0
  9
$CHAMFERC
 40
0.0
  9
$CHAMFERD
 40
0.0
  9
$SKPOLY
 70
     0
  9
$TDCREATE
 40
2454393.137688252
  9
$TDUCREATE
 40
2454393.346021586
  9
$TDUPDATE
 40
2458464.616909503
  9
$TDUUPDATE
 40
2458464.825242836
  9
$TDINDWG
 40
0.7945770255
  9
$TDUSRTIMER
 40
0.7945618287
  9
$USRTIMER
 70
     1
  9
$ANGBASE
 50
0.0
  9
$ANGDIR
 70
     0
  9
$PDMODE
 70
     0
  9
$PDSIZE
 40
0.0
  9
$PLINEWID
 40
0.0
  9
$SPLFRAME
 70
     0
  9
$SPLINETYPE
 70
     6
  9
$SPLINESEGS
 70
     8
  9
$HANDSEED
  5
2021
  9
$SURFTAB1
 70
     6
  9
$SURFTAB2
 70
     6
  9
$SURFTYPE
 70
     6
  9
$SURFU
 70
     6
  9
$SURFV
 70
     6
  9
$UCSBASE
  2

  9
$UCSNAME
  2

  9
$UCSORG
 10
0.0
 20
0.0
 30
0.0
  9
$UCSXDIR
 10
1.0
 20
0.0
 30
0.0
  9
$UCSYDIR
 10
0.0
 20
1.0
 30
0.0
  9
$UCSORTHOREF
  2

  9
$UCSORTHOVIEW
 70
     0
  9
$UCSORGTOP
 10
0.0
 20
0.0
 30
0.0
  9
$UCSORGBOTTOM
 10
0.0
 20
0.0
 30
0.0
  9
$UCSORGLEFT
 10
0.0
 20
0.0
 30
0.0
  9
$UCSORGRIGHT
 10
0.0
 20
0.0
 30
0.0
  9
$UCSORGFRONT
 10
0.0
 20
0.0
 30
0.0
  9
$UCSORGBACK
 10
0.0
 20
0.0
 30
0.0
  9
$PUCSBASE
  2

  9
$PUCSNAME
  2

  9
$PUCSORG
 10
0.0
 20
0.0
 30
0.0
  9
$PUCSXDIR
 10
1.0
 20
0.0
 30
0.0
  9
$PUCSYDIR
 10
0.0
 20
1.0
 30
0.0
  9
$PUCSORTHOREF
  2

  9
$PUCSORTHOVIEW
 70
     0
  9
$PUCSORGTOP
 10
0.0
 20
0.0
 30
0.0
  9
$PUCSORGBOTTOM
 10
0.0
 20
0.0
 30
0.0
  9
$PUCSORGLEFT
 10
0.0
 20
0.0
 30
0.0
  9
$PUCSORGRIGHT
 10
0.0
 20
0.0
 30
0.0
  9
$PUCSORGFRONT
 10
0.0
 20
0.0
 30
0.0
  9
$PUCSORGBACK
 10
0.0
 20
0.0
 30
0.0
  9
$USERI1
 70
     0
  9
$USERI2
 70
     0
  9
$USERI3
 70
     0
  9
$USERI4
 70
     0
  9
$USERI5
 70
     0
  9
$USERR1
 40
0.0
  9
$USERR2
 40
0.0
  9
$USERR3
 40
0.0
  9
$USERR4
 40
0.0
  9
$USERR5
 40
0.0
  9
$WORLDVIEW
 70
     1
  9
$SHADEDGE
 70
     3
  9
$SHADEDIF
 70
    70
  9
$TILEMODE
 70
     1
  9
$MAXACTVP
 70
    64
  9
$PINSBASE
 10
0.0
 20
0.0
 30
0.0
  9
$PLIMCHECK
 70
     0
  9
$PEXTMIN
 10
1.000000000000000E+20
 20
1.000000000000000E+20
 30
1.000000000000000E+20
  9
$PEXTMAX
 10
-1.000000000000000E+20
 20
-1.000000000000000E+20
 30
-1.000000000000000E+20
  9
$PLIMMIN
 10
0.0071835950613108
 20
0.0009369707933118
  9
$PLIMMAX
 10
841.0071835950612
 20
594.0009369707931
  9
$UNITMODE
 70
     0
  9
$VISRETAIN
 70
     1
  9
$PLINEGEN
 70
     0
  9
$PSLTSCALE
 70
     1
  9
$TREEDEPTH
 70
  3020
  9
$CMLSTYLE
  2
Standard
  9
$CMLJUST
 70
     0
  9
$CMLSCALE
 40
20.0
  9
$PROXYGRAPHICS
 70
     1
  9
$MEASUREMENT
 70
     1
  9
$CELWEIGHT
370
    -1
  9
$ENDCAPS
280
     0
  9
$JOINSTYLE
280
     0
  9
$LWDISPLAY
290
     0
  9
$INSUNITS
 70
     1
  9
$HYPERLINKBASE
  1

  9
$STYLESHEET
  1

  9
$XEDIT
290
     1
  9
$CEPSNTYPE
380
     0
  9
$PSTYLEMODE
290
     1
  9
$FINGERPRINTGUID
  2
{AC2FA5CB-6F18-4BC2-9C5F-F25C10372E5B}
  9
$VERSIONGUID
  2
{FE501D56-5CA4-47CB-8FE9-60FED1152224}
  9
$EXTNAMES
290
     1
  9
$PSVPSCALE
 40
0.0
  9
$OLESTARTUP
290
     0
  9
$SORTENTS
280
   127
  9
$INDEXCTL
280
     0
  9
$HIDETEXT
280
     0
  9
$XCLIPFRAME
290
     0
  9
$HALOGAP
280
     0
  9
$OBSCOLOR
 70
   257
  9
$OBSLTYPE
280
     0
  9
$INTERSECTIONDISPLAY
280
     0
  9
$INTERSECTIONCOLOR
 70
   257
  9
$DIMASSOC
280
     1
  9
$PROJECTNAME
  1

  0
ENDSEC
  0
SECTION
  2
CLASSES
  0
CLASS
  1
ACDBDICTIONARYWDFLT
  2
AcDbDictionaryWithDefault
  3
ObjectDBX Classes
 90
        0
 91
        1
280
     0
281
     0
  0
CLASS
  1
PLOTSETTINGS
  2
AcDbPlotSettings
  3
ObjectDBX Classes
 90
        0
 91
        0
280
     0
281
     0
  0
CLASS
  1
DICTIONARYVAR
  2
AcDbDictionaryVar
  3
ObjectDBX Classes
 90
        0
 91
        3
280
     0
281
     0
  0
CLASS
  1
TABLESTYLE
  2
AcDbTableStyle
  3
ObjectDBX Classes
 90
     4095
 91
        1
280
     0
281
     0
  0
CLASS
  1
DIMASSOC
  2
AcDbDimAssoc
  3
"AcDbDimAssoc|Product Desc:     AcDim ARX App For Dimension|Company:          Autodesk, Inc.|WEB Address:      www.autodesk.com"
 90
        0
 91
        0
280
     0
281
     0
  0
CLASS
  1
SORTENTSTABLE
  2
AcDbSortentsTable
  3
ObjectDBX Classes
 90
        0
 91
        2
280
     0
281
     0
  0
CLASS
  1
MATERIAL
  2
AcDbMaterial
  3
ObjectDBX Classes
 90
     1024
 91
        3
280
     0
281
     0
  0
CLASS
  1
VISUALSTYLE
  2
AcDbVisualStyle
  3
ObjectDBX Classes
 90
     4095
 91
       16
280
     0
281
     0
  0
ENDSEC
  0
SECTION
  2
TABLES
  0
TABLE
  2
VPORT
  5
19
330
0
100
AcDbSymbolTable
 70
     1
  0
VPORT
  5
1FED
330
19
100
AcDbSymbolTableRecord
100
AcDbViewportTableRecord
  2
*Active
 70
     0
 10
0.0
 20
0.0
 11
1.0
 21
1.0
 12
910.7983719986792
 22
610.4875277837687
 13
0.0
 23
0.0
 14
10.0
 24
10.0
 15
10.0
 25
10.0
 16
0.0
 26
0.0
 36
1.0
 17
0.0
 27
0.0
 37
0.0
 40
21.27749337553848
 41
2.738095238095238
 42
50.0
 43
0.0
 44
0.0
 50
0.0
 51
0.0
 71
     0
 72
  1000
 73
     1
 74
     3
 75
     0
 76
     0
 77
     0
 78
     0
281
     0
 65
     1
110
0.0
120
0.0
130
0.0
111
1.0
121
0.0
131
0.0
112
0.0
122
1.0
132
0.0
 79
     0
146
0.0
  0
ENDTAB
  0
TABLE
  2
LTYPE
  5
14
330
0
100
AcDbSymbolTable
 70
     2
  0
LTYPE
  5
15
330
14
100
AcDbSymbolTableRecord
100
AcDbLinetypeTableRecord
  2
ByBlock
 70
     0
  3

 72
    65
 73
     0
 40
0.0
  0
LTYPE
  5
16
330
14
100
AcDbSymbolTableRecord
100
AcDbLinetypeTableRecord
  2
ByLayer
 70
     0
  3

 72
    65
 73
     0
 40
0.0
  0
LTYPE
  5
8
330
14
100
AcDbSymbolTableRecord
100
AcDbLinetypeTableRecord
  2
Continuous
 70
     0
  3
Solid line
 72
    65
 73
     0
 40
0.0
  0
LTYPE
  5
1811
330
14
100
AcDbSymbolTableRecord
100
AcDbLinetypeTableRecord
  2
ACAD_ISO04W100
 70
     0
  3
ISO long-dash dot ____ . ____ . ____ . ____ . _
 72
    65
 73
     4
 40
30.0
 49
24.0
 74
     0
 49
-3.0
 74
     0
 49
0.0
 74
     0
 49
-3.0
 74
     0
  0
ENDTAB
  0
TABLE
  2
LAYER
  5
10
102
{ACAD_XDICTIONARY
360
1CBF
102
}
330
0
100
AcDbSymbolTable
 70
     9
  0
LAYER
  5
4
330
10
100
AcDbSymbolTableRecord
100
AcDbLayerTableRecord
  2
0
 70
     0
 62
     7
  6
Continuous
370
    -3
390
5
  0
LAYER
  5
8E
330
10
100
AcDbSymbolTableRecord
100
AcDbLayerTableRecord
  2
07
 70
     0
 62
     7
  6
Continuous
370
    -3
390
5
  0
LAYER
  5
8F
330
10
100
AcDbSymbolTableRecord
100
AcDbLayerTableRecord
  2
035
 70
     0
 62
     5
  6
Continuous
370
    -3
390
5
  0
LAYER
  5
90
330
10
100
AcDbSymbolTableRecord
100
AcDbLayerTableRecord
  2
05
 70
     0
 62
     6
  6
Continuous
370
    -3
390
5
  0
LAYER
  5
91
330
10
100
AcDbSymbolTableRecord
100
AcDbLayerTableRecord
  2
025
 70
     0
 62
     1
  6
Continuous
370
    -3
390
5
  0
LAYER
  5
5CE
330
10
100
AcDbSymbolTableRecord
100
AcDbLayerTableRecord
  2
Defpoints
 70
     0
 62
     7
  6
Continuous
290
     0
370
    -3
390
5
  0
LAYER
  5
62B
330
10
100
AcDbSymbolTableRecord
100
AcDbLayerTableRecord
  2
\U+7C97\U+5B9E\U+7EBF
 70
     0
 62
     7
  6
Continuous
370
    30
390
5
  0
LAYER
  5
62C
330
10
100
AcDbSymbolTableRecord
100
AcDbLayerTableRecord
  2
\U+6807\U+6CE8\U+7EBF
 70
     0
 62
     7
  6
Continuous
370
    13
390
5
  0
LAYER
  5
1812
330
10
100
AcDbSymbolTableRecord
100
AcDbLayerTableRecord
  2
\U+4E2D\U+5FC3\U+7EBF
 70
     0
 62
     7
  6
ACAD_ISO04W100
370
    18
390
5
  0
ENDTAB
  0
TABLE
  2
STYLE
  5
11
330
0
100
AcDbSymbolTable
 70
     4
  0
STYLE
  5
12
330
11
100
AcDbSymbolTableRecord
100
AcDbTextStyleTableRecord
  2
Standard
 70
     0
 40
0.0
 41
1.0
 50
0.0
 71
     0
 42
2.5
  3
txt
  4

  0
STYLE
  5
31
330
11
100
AcDbSymbolTableRecord
100
AcDbTextStyleTableRecord
  2
ISO Proportional
 70
     0
 40
0.0
 41
1.0
 50
0.0
 71
     0
 42
2.5
  3
isocp.shx
  4

  0
STYLE
  5
B96
330
11
100
AcDbSymbolTableRecord
100
AcDbTextStyleTableRecord
  2
\U+C2A4\U+D0C0\U+C77C1
 70
     0
 40
0.1968
 41
1.0
 50
0.0
 71
     0
 42
2.5
  3
txt.shx
  4

  0
STYLE
  5
B97
330
11
100
AcDbSymbolTableRecord
100
AcDbTextStyleTableRecord
  2
\U+C2A4\U+D0C0\U+C77C2
 70
     0
 40
0.3937
 41
1.0
 50
0.0
 71
     0
 42
0.3937
  3
txt.shx
  4

  0
ENDTAB
  0
TABLE
  2
VIEW
  5
17
330
0
100
AcDbSymbolTable
 70
     0
  0
ENDTAB
  0
TABLE
  2
UCS
  5
18
330
0
100
AcDbSymbolTable
 70
     0
  0
ENDTAB
  0
TABLE
  2
APPID
  5
1B
330
0
100
AcDbSymbolTable
 70
    12
  0
APPID
  5
1C
330
1B
100
AcDbSymbolTableRecord
100
AcDbRegAppTableRecord
  2
ACAD
 70
     0
  0
APPID
  5
346
330
1B
100
AcDbSymbolTableRecord
100
AcDbRegAppTableRecord
  2
GENIUS_GENTRA_14
 70
     0
  0
APPID
  5
347
330
1B
100
AcDbSymbolTableRecord
100
AcDbRegAppTableRecord
  2
GENIUS_GENODEF_13
 70
     0
  0
APPID
  5
348
330
1B
100
AcDbSymbolTableRecord
100
AcDbRegAppTableRecord
  2
GENIUS_GENOBJ-N-TIT_13
 70
     0
  0
APPID
  5
349
330
1B
100
AcDbSymbolTableRecord
100
AcDbRegAppTableRecord
  2
GENIUS_GENTITLE_13
 70
     0
  0
APPID
  5
34A
330
1B
100
AcDbSymbolTableRecord
100
AcDbRegAppTableRecord
  2
GENIUS_GENOENT_13
 70
     0
  0
APPID
  5
34B
330
1B
100
AcDbSymbolTableRecord
100
AcDbRegAppTableRecord
  2
GENIUS_GENOREF_13
 70
     0
  0
APPID
  5
34C
330
1B
100
AcDbSymbolTableRecord
100
AcDbRegAppTableRecord
  2
GENIUS_GENOLIS_13
 70
     0
  0
APPID
  5
34D
330
1B
100
AcDbSymbolTableRecord
100
AcDbRegAppTableRecord
  2
GENIUS_GENOBJ-N-SDF_13
 70
     0
  0
APPID
  5
34E
330
1B
100
AcDbSymbolTableRecord
100
AcDbRegAppTableRecord
  2
GENIUS_GENSCREG_13
 70
     0
  0
APPID
  5
886
330
1B
100
AcDbSymbolTableRecord
100
AcDbRegAppTableRecord
  2
ACAD_DSTYLE_DIMTEXT_FILL
 70
     0
  0
APPID
  5
B8B
330
1B
100
AcDbSymbolTableRecord
100
AcDbRegAppTableRecord
  2
ACAD_PSEXT
 70
     0
  0
ENDTAB
  0
TABLE
  2
DIMSTYLE
  5
1D
330
0
100
AcDbSymbolTable
 70
     4
100
AcDbDimStyleTable
 71
     1
340
1E
  0
DIMSTYLE
105
1E
330
1D
100
AcDbSymbolTableRecord
100
AcDbDimStyleTableRecord
  2
DIN
 70
     0
 41
2.5
 42
0.625
 43
3.75
 44
1.25
 74
     0
 77
     1
 78
     8
140
2.5
141
2.5
143
0.0394
145
1.0
147
0.625
172
     1
273
     8
277
     6
340
12
  0
DIMSTYLE
105
62D
330
1D
100
AcDbSymbolTableRecord
100
AcDbDimStyleTableRecord
  2
ISO-25
 70
     0
 41
10.0
 42
0.625
 43
3.75
 44
10.0
 73
     0
 74
     0
 77
     1
 78
     8
140
20.0
141
2.5
143
0.03937007874016
147
10.0
171
     3
172
     1
271
     2
272
     2
274
     3
278
    44
279
     1
283
     0
284
     8
340
12
  0
DIMSTYLE
105
62E
330
1D
100
AcDbSymbolTableRecord
100
AcDbDimStyleTableRecord
  2
\U+526F\U+672CISO-25
 70
     0
 41
15.0
 42
0.625
 43
3.75
 44
2.0
 73
     0
 74
     0
 77
     1
 78
     8
140
22.0
141
2.5
143
0.03937007874016
147
10.0
171
     3
179
     1
271
     1
272
     1
274
     3
278
    44
279
     1
283
     0
284
     8
340
12
  0
DIMSTYLE
105
62F
330
1D
100
AcDbSymbolTableRecord
100
AcDbDimStyleTableRecord
  2
\U+526F\U+672C (2)ISO-25
 70
     0
 41
10.0
 42
0.625
 43
3.75
 44
10.0
 73
     0
 74
     0
 77
     1
 78
     8
140
10.0
141
2.5
143
0.03937007874016
147
10.0
171
     3
172
     1
271
     2
272
     2
274
     3
278
    44
283
     0
284
     8
340
12
  0
ENDTAB
  0
TABLE
  2
BLOCK_RECORD
  5
1
330
0
100
AcDbSymbolTable
 70
     8
  0
BLOCK_RECORD
  5
2
102
{ACAD_XDICTIONARY
360
95E
102
}
330
1
100
AcDbSymbolTableRecord
100
AcDbBlockTableRecord
  2
*Model_Space
340
A
  0
BLOCK_RECORD
  5
C
330
1
100
AcDbSymbolTableRecord
100
AcDbBlockTableRecord
  2
*Paper_Space
340
F
  0
BLOCK_RECORD
  5
1ED2
330
1
100
AcDbSymbolTableRecord
100
AcDbBlockTableRecord
  2
*D0
340
0
  0
BLOCK_RECORD
  5
1EDF
330
1
100
AcDbSymbolTableRecord
100
AcDbBlockTableRecord
  2
*D1
340
0
  0
BLOCK_RECORD
  5
1EEC
330
1
100
AcDbSymbolTableRecord
100
AcDbBlockTableRecord
  2
*D2
340
0
  0
BLOCK_RECORD
  5
1EF9
330
1
100
AcDbSymbolTableRecord
100
AcDbBlockTableRecord
  2
*D3
340
0
  0
BLOCK_RECORD
  5
1F06
330
1
100
AcDbSymbolTableRecord
100
AcDbBlockTableRecord
  2
*D4
340
0
  0
BLOCK_RECORD
  5
1F0F
330
1
100
AcDbSymbolTableRecord
100
AcDbBlockTableRecord
  2
*D5
340
0
  0
BLOCK_RECORD
  5
1F18
330
1
100
AcDbSymbolTableRecord
100
AcDbBlockTableRecord
  2
*D6
340
0
  0
ENDTAB
  0
ENDSEC
  0
SECTION
  2
BLOCKS
  0
BLOCK
  5
3
330
2
100
AcDbEntity
  8
0
100
AcDbBlockBegin
  2
*Model_Space
 70
     2
 10
0.0
 20
0.0
 30
0.0
  3
*Model_Space
  1

  0
ENDBLK
  5
9
330
2
100
AcDbEntity
  8
0
100
AcDbBlockEnd
  0
BLOCK
  5
D
330
C
100
AcDbEntity
 67
     1
  8
0
100
AcDbBlockBegin
  2
*Paper_Space
 70
     0
 10
0.0
 20
0.0
 30
0.0
  3
*Paper_Space
  1

  0
ENDBLK
  5
E
330
C
100
AcDbEntity
 67
     1
  8
0
100
AcDbBlockEnd
  0
BLOCK
  5
1EDC
330
1ED2
100
AcDbEntity
  8
0
100
AcDbBlockBegin
  2
*D0
 70
     1
 10
0.0
 20
0.0
 30
0.0
  3
*D0
  1

  0
LINE
  5
1ED3
330
1ED2
100
AcDbEntity
  8
0
 62
     0
370
    -2
100
AcDbLine
 10
888.0611779487789
 20
604.8263051951022
 30
0.0
 11
882.6431134342371
 21
604.8263051951022
 31
0.0
  0
LINE
  5
1ED4
330
1ED2
100
AcDbEntity
  8
0
 62
     0
370
    -2
100
AcDbLine
 10
888.0611779487789
 20
620.5743051950999
 30
0.0
 11
882.6431134342371
 21
620.5743051950999
 31
0.0
  0
LINE
  5
1ED5
330
1ED2
100
AcDbEntity
  8
0
 62
     0
370
    -2
100
AcDbLine
 10
882.8431134342372
 20
605.0263051951024
 30
0.0
 11
882.8431134342372
 21
620.3743051951001
 31
0.0
  0
SOLID
  5
1ED6
330
1ED2
100
AcDbEntity
  8
0
 62
     0
100
AcDbTrace
 10
882.809780100904
 20
605.0263051951024
 30
0.0
 11
882.8764467675705
 21
605.0263051951024
 31
0.0
 12
882.8431134342372
 22
604.8263051951022
 32
0.0
 13
882.8431134342372
 23
604.8263051951022
 33
0.0
  0
SOLID
  5
1ED7
330
1ED2
100
AcDbEntity
  8
0
 62
     0
100
AcDbTrace
 10
882.809780100904
 20
620.3743051951001
 30
0.0
 11
882.8764467675705
 21
620.3743051951001
 31
0.0
 12
882.8431134342372
 22
620.5743051950999
 32
0.0
 13
882.8431134342372
 23
620.5743051950999
 33
0.0
  0
MTEXT
  5
1ED8
330
1ED2
100
AcDbEntity
  8
0
 62
     0
100
AcDbMText
 10
882.5962634342371
 20
612.7003051951012
 30
0.0
 40
0.3937
 41
0.0
 71
     5
 72
     1
  1
\A1;15.748
  7
\U+C2A4\U+D0C0\U+C77C2
 11
0.0000000000000001
 21
1.0
 31
0.0
 73
     1
 44
1.0
  0
POINT
  5
1ED9
330
1ED2
100
AcDbEntity
  8
Defpoints
 62
     0
100
AcDbPoint
 10
888.1611779487791
 20
604.8263051951022
 30
0.0
  0
POINT
  5
1EDA
330
1ED2
100
AcDbEntity
  8
Defpoints
 62
     0
100
AcDbPoint
 10
888.1611779487791
 20
620.5743051950999
 30
0.0
  0
POINT
  5
1EDB
330
1ED2
100
AcDbEntity
  8
Defpoints
 62
     0
100
AcDbPoint
 10
882.8431134342372
 20
620.5743051950999
 30
0.0
  0
ENDBLK
  5
1EDD
330
1ED2
100
AcDbEntity
  8
0
100
AcDbBlockEnd
  0
BLOCK
  5
1EE9
330
1EDF
100
AcDbEntity
  8
0
100
AcDbBlockBegin
  2
*D1
 70
     1
 10
0.0
 20
0.0
 30
0.0
  3
*D1
  1

  0
LINE
  5
1EE0
330
1EDF
100
AcDbEntity
  8
0
 62
     0
370
    -2
100
AcDbLine
 10
888.0611779487789
 20
604.5900851951022
 30
0.0
 11
881.8074250533179
 21
604.5900851951022
 31
0.0
  0
LINE
  5
1EE1
330
1EDF
100
AcDbEntity
  8
0
 62
     0
370
    -2
100
AcDbLine
 10
888.0611779487789
 20
620.8105251951
 30
0.0
 11
881.8074250533179
 21
620.8105251951
 31
0.0
  0
LINE
  5
1EE2
330
1EDF
100
AcDbEntity
  8
0
 62
     0
370
    -2
100
AcDbLine
 10
882.0074250533179
 20
604.7900851951022
 30
0.0
 11
882.0074250533179
 21
620.6105251950997
 31
0.0
  0
SOLID
  5
1EE3
330
1EDF
100
AcDbEntity
  8
0
 62
     0
100
AcDbTrace
 10
881.9740917199847
 20
604.7900851951022
 30
0.0
 11
882.0407583866513
 21
604.7900851951022
 31
0.0
 12
882.0074250533179
 22
604.5900851951022
 32
0.0
 13
882.0074250533179
 23
604.5900851951022
 33
0.0
  0
SOLID
  5
1EE4
330
1EDF
100
AcDbEntity
  8
0
 62
     0
100
AcDbTrace
 10
881.9740917199847
 20
620.6105251950997
 30
0.0
 11
882.0407583866513
 21
620.6105251950997
 31
0.0
 12
882.0074250533179
 22
620.8105251951
 32
0.0
 13
882.0074250533179
 23
620.8105251951
 33
0.0
  0
MTEXT
  5
1EE5
330
1EDF
100
AcDbEntity
  8
0
 62
     0
100
AcDbMText
 10
881.7605750533179
 20
612.7003051951012
 30
0.0
 40
0.3937
 41
0.0
 71
     5
 72
     1
  1
\A1;16.2204
  7
\U+C2A4\U+D0C0\U+C77C2
 11
0.0000000000000001
 21
1.0
 31
0.0
 73
     1
 44
1.0
  0
POINT
  5
1EE6
330
1EDF
100
AcDbEntity
  8
Defpoints
 62
     0
100
AcDbPoint
 10
888.1611779487791
 20
604.5900851951022
 30
0.0
  0
POINT
  5
1EE7
330
1EDF
100
AcDbEntity
  8
Defpoints
 62
     0
100
AcDbPoint
 10
888.1611779487791
 20
620.8105251951
 30
0.0
  0
POINT
  5
1EE8
330
1EDF
100
AcDbEntity
  8
Defpoints
 62
     0
100
AcDbPoint
 10
882.0074250533179
 20
620.8105251951
 30
0.0
  0
ENDBLK
  5
1EEA
330
1EDF
100
AcDbEntity
  8
0
100
AcDbBlockEnd
  0
BLOCK
  5
1EF6
330
1EEC
100
AcDbEntity
  8
0
100
AcDbBlockBegin
  2
*D2
 70
     1
 10
0.0
 20
0.0
 30
0.0
  3
*D2
  1

  0
LINE
  5
1F7E
330
1EEC
100
AcDbEntity
  8
0
 62
     0
370
    -2
100
AcDbLine
 10
883.7286
 20
609.0963751951091
 30
0.0
 11
883.7286
 21
603.5625977020087
 31
0.0
  0
LINE
  5
1F7F
330
1EEC
100
AcDbEntity
  8
0
 62
     0
370
    -2
100
AcDbLine
 10
913.082387948779
 20
609.0963751951021
 30
0.0
 11
913.082387948779
 21
603.5625977020087
 31
0.0
  0
LINE
  5
1F80
330
1EEC
100
AcDbEntity
  8
0
 62
     0
370
    -2
100
AcDbLine
 10
883.9286000000001
 20
603.7625977020089
 30
0.0
 11
912.8823879487788
 21
603.7625977020089
 31
0.0
  0
SOLID
  5
1F81
330
1EEC
100
AcDbEntity
  8
0
 62
     0
100
AcDbTrace
 10
883.9286000000001
 20
603.7959310353421
 30
0.0
 11
883.9286000000001
 21
603.7292643686755
 31
0.0
 12
883.7286
 22
603.7625977020089
 32
0.0
 13
883.7286
 23
603.7625977020089
 33
0.0
  0
SOLID
  5
1F82
330
1EEC
100
AcDbEntity
  8
0
 62
     0
100
AcDbTrace
 10
912.8823879487788
 20
603.7959310353421
 30
0.0
 11
912.8823879487788
 21
603.7292643686755
 31
0.0
 12
913.082387948779
 22
603.7625977020089
 32
0.0
 13
913.082387948779
 23
603.7625977020089
 33
0.0
  0
MTEXT
  5
1F83
330
1EEC
100
AcDbEntity
  8
0
 62
     0
100
AcDbMText
 10
898.4054939743895
 20
604.0094477020089
 30
0.0
 40
0.3937
 41
0.0
 71
     5
 72
     1
  1
\A1;29.3538
  7
\U+C2A4\U+D0C0\U+C77C2
 73
     1
 44
1.0
  0
POINT
  5
1F84
330
1EEC
100
AcDbEntity
  8
Defpoints
 62
     0
100
AcDbPoint
 10
883.7286
 20
609.1963751951091
 30
0.0
  0
POINT
  5
1F85
330
1EEC
100
AcDbEntity
  8
Defpoints
 62
     0
100
AcDbPoint
 10
913.082387948779
 20
609.1963751951022
 30
0.0
  0
POINT
  5
1F86
330
1EEC
100
AcDbEntity
  8
Defpoints
 62
     0
100
AcDbPoint
 10
913.082387948779
 20
603.7625977020089
 30
0.0
  0
ENDBLK
  5
1EF7
330
1EEC
100
AcDbEntity
  8
0
100
AcDbBlockEnd
  0
BLOCK
  5
1F03
330
1EF9
100
AcDbEntity
  8
0
100
AcDbBlockBegin
  2
*D3
 70
     1
 10
0.0
 20
0.0
 30
0.0
  3
*D3
  1

  0
LINE
  5
1EFA
330
1EF9
100
AcDbEntity
  8
0
 62
     0
370
    -2
100
AcDbLine
 10
883.5548879487699
 20
609.0963751951094
 30
0.0
 11
883.5548879487699
 21
602.7766562708227
 31
0.0
  0
LINE
  5
1EFB
330
1EF9
100
AcDbEntity
  8
0
 62
     0
370
    -2
100
AcDbLine
 10
913.3186079487835
 20
609.0963751951091
 30
0.0
 11
913.3186079487835
 21
602.7766562708227
 31
0.0
  0
LINE
  5
1EFC
330
1EF9
100
AcDbEntity
  8
0
 62
     0
370
    -2
100
AcDbLine
 10
883.7548879487696
 20
602.9766562708227
 30
0.0
 11
913.1186079487834
 21
602.9766562708227
 31
0.0
  0
SOLID
  5
1EFD
330
1EF9
100
AcDbEntity
  8
0
 62
     0
100
AcDbTrace
 10
883.7548879487696
 20
603.009989604156
 30
0.0
 11
883.7548879487696
 21
602.9433229374895
 31
0.0
 12
883.5548879487699
 22
602.9766562708227
 32
0.0
 13
883.5548879487699
 23
602.9766562708227
 33
0.0
  0
SOLID
  5
1EFE
330
1EF9
100
AcDbEntity
  8
0
 62
     0
100
AcDbTrace
 10
913.1186079487834
 20
603.009989604156
 30
0.0
 11
913.1186079487834
 21
602.9433229374895
 31
0.0
 12
913.3186079487835
 22
602.9766562708227
 32
0.0
 13
913.3186079487835
 23
602.9766562708227
 33
0.0
  0
MTEXT
  5
1EFF
330
1EF9
100
AcDbEntity
  8
0
 62
     0
100
AcDbMText
 10
898.4367479487767
 20
603.2235062708227
 30
0.0
 40
0.3937
 41
0.0
 71
     5
 72
     1
  1
\A1;29.7637
  7
\U+C2A4\U+D0C0\U+C77C2
 73
     1
 44
1.0
  0
POINT
  5
1F00
330
1EF9
100
AcDbEntity
  8
Defpoints
 62
     0
100
AcDbPoint
 10
883.5548879487699
 20
609.1963751951094
 30
0.0
  0
POINT
  5
1F01
330
1EF9
100
AcDbEntity
  8
Defpoints
 62
     0
100
AcDbPoint
 10
913.3186079487835
 20
609.1963751951091
 30
0.0
  0
POINT
  5
1F02
330
1EF9
100
AcDbEntity
  8
Defpoints
 62
     0
100
AcDbPoint
 10
913.3186079487835
 20
602.9766562708227
 30
0.0
  0
ENDBLK
  5
1F04
330
1EF9
100
AcDbEntity
  8
0
100
AcDbBlockEnd
  0
BLOCK
  5
1F0C
330
1F06
100
AcDbEntity
  8
0
100
AcDbBlockBegin
  2
*D4
 70
     1
 10
0.0
 20
0.0
 30
0.0
  3
*D4
  1

  0
LINE
  5
1F07
330
1F06
100
AcDbEntity
  8
0
 62
     0
370
    -2
100
AcDbLine
 10
886.63215578001
 20
617.7144858778047
 30
0.0
 11
884.6826898742483
 21
619.527464510407
 31
0.0
  0
MTEXT
  5
1F08
330
1F06
100
AcDbEntity
  8
0
 62
     0
100
AcDbMText
 10
885.8987571994658
 20
618.7336368256798
 30
0.0
 40
0.3937
 41
0.0
 71
     5
 72
     1
  1
\A1;R3.2283
  7
\U+C2A4\U+D0C0\U+C77C2
 11
0.7322762774253214
 21
-0.6810076750816499
 31
0.0
 73
     1
 44
1.0
  0
SOLID
  5
1F09
330
1F06
100
AcDbEntity
  8
0
 62
     0
100
AcDbTrace
 10
884.7053901300842
 20
619.5518737196542
 30
0.0
 11
884.6599896184123
 21
619.5030553011592
 31
0.0
 12
884.5362346187632
 22
619.6636660454232
 32
0.0
 13
884.5362346187632
 23
619.6636660454232
 33
0.0
  0
POINT
  5
1F0A
330
1F06
100
AcDbEntity
  8
Defpoints
 62
     0
100
AcDbPoint
 10
884.5362346187632
 20
619.6636660454232
 30
0.0
  0
POINT
  5
1F0B
330
1F06
100
AcDbEntity
  8
Defpoints
 62
     0
100
AcDbPoint
 10
886.9002714162265
 20
617.4651417276502
 30
0.0
  0
ENDBLK
  5
1F0D
330
1F06
100
AcDbEntity
  8
0
100
AcDbBlockEnd
  0
BLOCK
  5
1F15
330
1F0F
100
AcDbEntity
  8
0
100
AcDbBlockBegin
  2
*D5
 70
     1
 10
0.0
 20
0.0
 30
0.0
  3
*D5
  1

  0
LINE
  5
1F10
330
1F0F
100
AcDbEntity
  8
0
 62
     0
370
    -2
100
AcDbLine
 10
887.5060840648679
 20
617.7867424132547
 30
0.0
 11
887.2478078400833
 21
620.5682102235106
 31
0.0
  0
MTEXT
  5
1F11
330
1F0F
100
AcDbEntity
  8
0
 62
     0
100
AcDbMText
 10
887.6319844182011
 20
619.1007280056956
 30
0.0
 40
0.3937
 41
0.0
 71
     5
 72
     1
  1
\A1;R10.0787
  7
\U+C2A4\U+D0C0\U+C77C2
 11
0.0924583456861362
 21
-0.9957165531982397
 31
0.0
 73
     1
 44
1.0
  0
SOLID
  5
1F12
330
1F0F
100
AcDbEntity
  8
0
 62
     0
100
AcDbTrace
 10
887.2809983918566
 20
620.5712921683668
 30
0.0
 11
887.2146172883102
 21
620.5651282786542
 31
0.0
 12
887.2293161709462
 22
620.7673535341503
 32
0.0
 13
887.2293161709462
 23
620.7673535341503
 33
0.0
  0
POINT
  5
1F13
330
1F0F
100
AcDbEntity
  8
Defpoints
 62
     0
100
AcDbPoint
 10
887.2293161709462
 20
620.7673535341503
 30
0.0
  0
POINT
  5
1F14
330
1F0F
100
AcDbEntity
  8
Defpoints
 62
     0
100
AcDbPoint
 10
888.16117794878
 20
610.7318051951001
 30
0.0
  0
ENDBLK
  5
1F16
330
1F0F
100
AcDbEntity
  8
0
100
AcDbBlockEnd
  0
BLOCK
  5
1F1E
330
1F18
100
AcDbEntity
  8
0
100
AcDbBlockBegin
  2
*D6
 70
     1
 10
0.0
 20
0.0
 30
0.0
  3
*D6
  1

  0
LINE
  5
1F19
330
1F18
100
AcDbEntity
  8
0
 62
     0
370
    -2
100
AcDbLine
 10
886.5609472938222
 20
616.6270335024992
 30
0.0
 11
883.7724918708618
 21
616.7937252597607
 31
0.0
  0
MTEXT
  5
1F1A
330
1F18
100
AcDbEntity
  8
0
 62
     0
100
AcDbMText
 10
885.2812715921421
 20
616.9508222216363
 30
0.0
 40
0.3937
 41
0.0
 71
     5
 72
     1
  1
\A1;R10.0787
  7
\U+C2A4\U+D0C0\U+C77C2
 11
0.9982179956424037
 21
-0.0596727171801524
 31
0.0
 73
     1
 44
1.0
  0
SOLID
  5
1F1B
330
1F18
100
AcDbEntity
  8
0
 62
     0
100
AcDbTrace
 10
883.7744809614346
 20
616.8269991929487
 30
0.0
 11
883.7705027802893
 21
616.7604513265727
 31
0.0
 12
883.5728482717332
 22
616.8056598031967
 32
0.0
 13
883.5728482717332
 23
616.8056598031967
 33
0.0
  0
POINT
  5
1F1C
330
1F18
100
AcDbEntity
  8
Defpoints
 62
     0
100
AcDbPoint
 10
883.5728482717332
 20
616.8056598031967
 30
0.0
  0
POINT
  5
1F1D
330
1F18
100
AcDbEntity
  8
Defpoints
 62
     0
100
AcDbPoint
 10
893.6336079487734
 20
616.2042351950989
 30
0.0
  0
ENDBLK
  5
1F1F
330
1F18
100
AcDbEntity
  8
0
100
AcDbBlockEnd
  0
ENDSEC
  0
SECTION
  2
ENTITIES
  0
POINT
  5
37C
330
2
100
AcDbEntity
  8
0
 60
     1
100
AcDbPoint
 10
170.4737662487822
 20
-90.83440570086338
 30
0.0
1001
GENIUS_GENOBJ-N-TIT_13
1002
{
1000
OWNER
1000
GEN
1002
}
1001
GENIUS_GENOENT_13
1002
{
1000
MYREF
1005
37C
1002
}
1002
{
1000
GRP
1005
0
1002
}
1001
GENIUS_GENOLIS_13
1002
{
1000
ENT
1005
0
1005
0
1002
}
1001
GENIUS_GENTITLE_13
1002
{
1000
SCALE
1000
1:1
1002
}
1002
{
1000
BORDER
1000
GEN_A1
1002
}
1002
{
1000
TITLE
1000
GENTITLE
1002
}
1002
{
1000
UNCHG
1002
{
1000
GEN-TITLE-SCA
1000
GEN-TITLE-SIZ
1002
}
1002
}
1002
{
1000
HRA
1005
0
1002
}
1002
{
1000
HTIT
1005
0
1002
}
1002
{
1000
GENIUSID
1005
37C
1002
}
1001
GENIUS_GENODEF_13
1002
{
1000
HIER
1070
     1
1002
}
1002
{
1000
MANEDIT
1070
     0
1002
}
1002
{
1000
NOSEL
1070
     0
1002
}
1002
{
1000
BEHIND
1070
     0
1002
}
1002
{
1000
REACTOR
1002
}
  0
TEXT
  5
384
330
2
100
AcDbEntity
  8
0
 60
     1
100
AcDbText
 10
830.9999999999996
 20
-52.92726755347096
 30
0.0
 40
3.5
  1
!GENTITLE-INSERT
100
AcDbText
  0
TEXT
  5
385
330
2
100
AcDbEntity
  8
0
 60
     1
100
AcDbText
 10
10.0
 20
-47.92726755347096
 30
0.0
 40
3.5
  1
!GENTITLE-LL
100
AcDbText
  0
TEXT
  5
386
330
2
100
AcDbEntity
  8
0
 60
     1
100
AcDbText
 10
831.0
 20
526.072732446529
 30
0.0
 40
3.5
  1
!GENTITLE-RU
100
AcDbText
  0
TEXT
  5
387
330
2
100
AcDbEntity
  8
0
 60
     1
100
AcDbText
 10
841.0
 20
536.0727324465289
 30
0.0
 40
3.5
  1
!GENTITLE-MAX
100
AcDbText
  0
TEXT
  5
3FA
330
2
100
AcDbEntity
  8
0
 60
     1
100
AcDbText
 10
684.8812705983662
 20
141.8068575944205
 30
0.0
 40
3.5
  1
!GENTITLE-INSERT
100
AcDbText
  0
TEXT
  5
3FB
330
2
100
AcDbEntity
  8
0
 60
     1
100
AcDbText
 10
-136.1187294016335
 20
146.8068575944205
 30
0.0
 40
3.5
  1
!GENTITLE-LL
100
AcDbText
  0
TEXT
  5
3FC
330
2
100
AcDbEntity
  8
0
 60
     1
100
AcDbText
 10
684.8812705983664
 20
720.8068575944203
 30
0.0
 40
3.5
  1
!GENTITLE-RU
100
AcDbText
  0
TEXT
  5
3FD
330
2
100
AcDbEntity
  8
0
 60
     1
100
AcDbText
 10
694.8812705983664
 20
730.8068575944203
 30
0.0
 40
3.5
  1
!GENTITLE-MAX
100
AcDbText
  0
LINE
  5
1D64
330
2
100
AcDbEntity
  8
\U+7C97\U+5B9E\U+7EBF
100
AcDbLine
 10
883.7286
 20
612.7315499999999
 30
0.0
 11
883.7286
 21
616.2042351950931
 31
0.0
  0
ARC
  5
1D74
330
2
100
AcDbEntity
  8
\U+6807\U+6CE8\U+7EBF
 48
3.0
100
AcDbCircle
 10
888.098669356154
 20
610.7318042235332
 30
0.0
 40
9.842499999999999
100
AcDbArc
 50
90.0
 51
100.6065510418501
  0
ARC
  5
1D75
330
2
100
AcDbEntity
  8
\U+6807\U+6CE8\U+7EBF
 48
3.0
100
AcDbCircle
 10
893.5711000645833
 20
616.2042351465212
 30
0.0
 40
9.842499999999999
100
AcDbArc
 50
169.3934489582259
 51
180.0
  0
ARC
  5
1D76
330
2
100
AcDbEntity
  8
\U+6807\U+6CE8\U+7EBF
 48
3.0
100
AcDbCircle
 10
886.8377633549268
 20
617.4651409018182
 30
0.0
 40
2.992119999999999
100
AcDbArc
 50
100.6065510418501
 51
169.3934489582259
  0
LINE
  5
1D8C
330
2
100
AcDbEntity
  8
\U+7C97\U+5B9E\U+7EBF
100
AcDbLine
 10
883.7286
 20
612.7003051951022
 30
0.0
 11
883.7286
 21
609.1963751951091
 31
0.0
  0
ARC
  5
1D8D
330
2
100
AcDbEntity
  8
\U+6807\U+6CE8\U+7EBF
 48
3.0
100
AcDbCircle
 10
888.0986693561537
 20
614.668806603874
 30
0.0
 40
9.842499999999999
100
AcDbArc
 50
259.3934489581499
 51
270.0
  0
ARC
  5
1D8E
330
2
100
AcDbEntity
  8
\U+6807\U+6CE8\U+7EBF
 48
3.0
100
AcDbCircle
 10
893.5710999760289
 20
609.196376166669
 30
0.0
 40
9.842499999999999
100
AcDbArc
 50
180.0
 51
190.6065510417741
  0
ARC
  5
1D8F
330
2
100
AcDbEntity
  8
\U+6807\U+6CE8\U+7EBF
 48
3.0
100
AcDbCircle
 10
886.8377633549268
 20
607.9354701199044
 30
0.0
 40
2.992119999999999
100
AcDbArc
 50
190.6065510417741
 51
259.3934489581499
  0
LINE
  5
1D9A
330
2
100
AcDbEntity
  8
\U+7C97\U+5B9E\U+7EBF
100
AcDbLine
 10
913.1448701522392
 20
612.7003051465237
 30
0.0
 11
913.1448701522343
 21
616.2042354865697
 31
0.0
  0
ARC
  5
1D9B
330
2
100
AcDbEntity
  8
\U+6807\U+6CE8\U+7EBF
 48
3.0
100
AcDbCircle
 10
908.7748001522347
 20
610.73180548657
 30
0.0
 40
9.842499999999999
100
AcDbArc
 50
79.39344895814992
 51
90.0
  0
ARC
  5
1D9C
330
2
100
AcDbEntity
  8
\U+6807\U+6CE8\U+7EBF
 48
3.0
100
AcDbCircle
 10
903.3023701522346
 20
616.2042354865697
 30
0.0
 40
9.842499999999999
100
AcDbArc
 50
0.0
 51
10.60655104177406
  0
ARC
  5
1D9D
330
2
100
AcDbEntity
  8
\U+6807\U+6CE8\U+7EBF
 48
3.0
100
AcDbCircle
 10
910.0357066847875
 20
617.4651420191202
 30
0.0
 40
2.992119999999999
100
AcDbArc
 50
10.60655104177406
 51
79.39344895814992
  0
LINE
  5
1DA4
330
2
100
AcDbEntity
  8
\U+7C97\U+5B9E\U+7EBF
100
AcDbLine
 10
913.1448701522392
 20
612.7003051465237
 30
0.0
 11
913.1448701522392
 21
609.1963751465307
 31
0.0
  0
ARC
  5
1DA5
330
2
100
AcDbEntity
  8
\U+6807\U+6CE8\U+7EBF
 48
3.0
100
AcDbCircle
 10
908.7748001522346
 20
614.6688051465237
 30
0.0
 40
9.842499999999999
100
AcDbArc
 50
270.0
 51
280.6065510418501
  0
ARC
  5
1DA6
330
2
100
AcDbEntity
  8
\U+6807\U+6CE8\U+7EBF
 48
3.0
100
AcDbCircle
 10
903.3023701522342
 20
609.1963751465238
 30
0.0
 40
9.842499999999999
100
AcDbArc
 50
349.393448958226
 51
0.0
  0
ARC
  5
1DA7
330
2
100
AcDbEntity
  8
\U+6807\U+6CE8\U+7EBF
 48
3.0
100
AcDbCircle
 10
910.0357066847873
 20
607.935468613976
 30
0.0
 40
2.992119999999999
100
AcDbArc
 50
280.6065510418501
 51
349.393448958226
  0
LINE
  5
1EBD
330
2
100
AcDbEntity
  8
0
100
AcDbLine
 10
888.098669356154
 20
620.5743042235332
 30
0.0
 11
908.7748001522347
 21
620.5743054865697
 31
0.0
  0
LINE
  5
1EBE
330
2
100
AcDbEntity
  8
0
100
AcDbLine
 10
888.0986693561537
 20
604.8263066038741
 30
0.0
 11
908.7748001522346
 21
604.8263051465237
 31
0.0
  0
MTEXT
  5
2018
330
2
100
AcDbEntity
  8
0
100
AcDbMText
 10
894.2762144559868
 20
610.8845081124901
 30
0.0
 40
0.3937
 41
14.93397349915023
 71
     1
 72
     5
  3
{\fTimes New Roman|b0|i0|c0|p18;\H1.27x;Model : GOR-3218S   \H0.58x;IMPORTANT ! \PThis template is provided as a guide for Undermount cutout only. \PBefore beginning to cut countertop, compare physical dimension of the template and the cutout line wi
  1
th the actual sink unit for an accurate cut.\PHamatUSA is not responsible for any countertop, installation or labor charges due to failure to follow these instructions.\P\Lwww.Hamatusa.com }
  7
\U+C2A4\U+D0C0\U+C77C2
 73
     1
 44
1.0
  0
VIEWPORT
  5
74
330
C
100
AcDbEntity
 67
     1
  8
0
100
AcDbViewport
 10
490.633788896909
 20
297.0009369707932
 30
0.0
 40
1115.370256166983
 41
599.3755656108596
 68
     1
 69
     1
 12
490.633788896909
 22
297.0009369707932
 13
0.0
 23
0.0
 14
10.0
 24
10.0
 15
10.0
 25
10.0
 16
0.0
 26
0.0
 36
1.0
 17
0.0
 27
0.0
 37
0.0
 42
50.0
 43
0.0
 44
0.0
 45
599.3755656108596
 50
0.0
 51
0.0
 72
  1000
 90
    32800
  1

281
     0
 71
     1
 74
     0
110
0.0
120
0.0
130
0.0
111
1.0
121
0.0
131
0.0
112
0.0
122
1.0
132
0.0
 79
     0
146
0.0
170
     0
  0
ENDSEC
  0
SECTION
  2
OBJECTS
  0
DICTIONARY
  5
7
330
0
100
AcDbDictionary
281
     1
  3
ACAD_COLOR
350
5A3
  3
ACAD_GROUP
350
20
  3
ACAD_LAYOUT
350
B
  3
ACAD_MATERIAL
350
5A2
  3
ACAD_MLINESTYLE
350
21
  3
ACAD_PLOTSETTINGS
350
22
  3
ACAD_PLOTSTYLENAME
350
6
  3
ACAD_TABLESTYLE
350
5C3
  3
ACAD_VISUALSTYLE
350
1FFD
  3
AcDbVariableDictionary
350
81
  0
DICTIONARY
  5
1CBF
330
10
100
AcDbDictionary
280
     1
281
     1
  3
ACAD_LAYERSTATES
360
1CC0
  0
DICTIONARY
  5
95E
330
2
100
AcDbDictionary
280
     1
281
     1
  3
ACAD_SORTENTS
360
95F
  0
DICTIONARY
  5
5A3
102
{ACAD_REACTORS
330
7
102
}
330
7
100
AcDbDictionary
281
     1
  0
DICTIONARY
  5
20
102
{ACAD_REACTORS
330
7
102
}
330
7
100
AcDbDictionary
281
     1
  0
DICTIONARY
  5
B
102
{ACAD_REACTORS
330
7
102
}
330
7
100
AcDbDictionary
281
     1
  3
DIN A1 Title Block
350
F
  3
Model
350
A
  0
DICTIONARY
  5
5A2
102
{ACAD_REACTORS
330
7
102
}
330
7
100
AcDbDictionary
281
     1
  3
ByBlock
350
1FFB
  3
ByLayer
350
1FFA
  3
Global
350
1FFC
  0
DICTIONARY
  5
21
102
{ACAD_REACTORS
330
7
102
}
330
7
100
AcDbDictionary
281
     1
  3
Standard
350
23
  0
DICTIONARY
  5
22
102
{ACAD_REACTORS
330
7
102
}
330
7
100
AcDbDictionary
281
     1
  0
ACDBDICTIONARYWDFLT
  5
6
102
{ACAD_REACTORS
330
7
102
}
330
7
100
AcDbDictionary
281
     1
  3
Normal
350
5
100
AcDbDictionaryWithDefault
340
5
  0
DICTIONARY
  5
5C3
102
{ACAD_REACTORS
330
7
102
}
330
7
100
AcDbDictionary
281
     1
  3
Standard
350
5C4
  0
DICTIONARY
  5
1FFD
102
{ACAD_REACTORS
330
7
102
}
330
7
100
AcDbDictionary
281
     1
  3
2dWireframe
350
2003
  3
3D Hidden
350
2005
  3
3dWireframe
350
2004
  3
Basic
350
2002
  3
Brighten
350
2009
  3
ColorChange
350
200D
  3
Conceptual
350
2006
  3
Dim
350
2008
  3
Facepattern
350
200C
  3
Flat
350
1FFE
  3
FlatWithEdges
350
1FFF
  3
Gouraud
350
2000
  3
GouraudWithEdges
350
2001
  3
Linepattern
350
200B
  3
Realistic
350
2007
  3
Thicken
350
200A
  0
DICTIONARY
  5
81
102
{ACAD_REACTORS
330
7
102
}
330
7
100
AcDbDictionary
281
     1
  3
CTABLESTYLE
350
5EE
  3
DIMASSOC
350
82
  3
PROJECTNAME
350
1F5B
  0
DICTIONARY
  5
1CC0
102
{ACAD_REACTORS
330
1CBF
102
}
330
1CBF
100
AcDbDictionary
281
     1
  0
SORTENTSTABLE
  5
95F
102
{ACAD_REACTORS
330
95E
102
}
330
95E
100
AcDbSortentsTable
330
2
331
1D8E
  5
1DA4
331
1D8D
  5
1D9C
331
1D8C
  5
1D9A
331
1D64
  5
1D64
331
1D76
  5
1D8E
331
37C
  5
37C
331
1D75
  5
1D8C
331
1DA7
  5
1ECB
331
1D74
  5
1D75
331
1DA6
  5
1EC9
331
1DA5
  5
1EC7
331
1DA4
  5
1EC5
331
3FD
  5
3FD
331
3FC
  5
3FC
331
3FB
  5
3FB
331
1EBE
  5
1ECF
331
1EBD
  5
1ECD
331
3FA
  5
3FA
331
387
  5
387
331
386
  5
386
331
1D9D
  5
1EC3
331
1D9C
  5
1EC1
331
385
  5
385
331
384
  5
384
331
1D9B
  5
1EBF
331
1D9A
  5
1EBD
331
1D8F
  5
1DA6
  0
LAYOUT
  5
F
102
{ACAD_REACTORS
330
B
102
}
330
B
100
AcDbPlotSettings
  1

  2
none_device
  4
ISO_A1_(841.00_x_594.00_MM)
  6

 40
7.549999999999998
 41
20.05
 42
7.549999999999998
 43
20.05
 44
841.0
 45
594.0
 46
-7.57
 47
-20.06
 48
0.0
 49
0.0
140
0.0
141
0.0
142
1.0
143
1.0
 70
   688
 72
     1
 73
     0
 74
     5
  7

 75
    16
147
1.0
 76
     0
 77
     2
 78
   300
148
0.0128164049386896
149
0.0090630292066862
100
AcDbLayout
  1
DIN A1 Title Block
 70
     1
 71
     1
 10
0.0071835950613108
 20
0.0009369707933118
 11
841.0071835950612
 21
594.0009369707931
 12
0.0
 22
0.0
 32
0.0
 14
1.000000000000000E+20
 24
1.000000000000000E+20
 34
1.000000000000000E+20
 15
-1.000000000000000E+20
 25
-1.000000000000000E+20
 35
-1.000000000000000E+20
146
0.0
 13
0.0
 23
0.0
 33
0.0
 16
1.0
 26
0.0
 36
0.0
 17
0.0
 27
1.0
 37
0.0
 76
     0
330
C
331
74
  0
LAYOUT
  5
A
102
{ACAD_REACTORS
330
B
102
}
330
B
100
AcDbPlotSettings
  1

  2
none_device
  4
ISO_A4_(297.00_x_210.00_MM)
  6

 40
7.5
 41
20.0
 42
7.5
 43
20.0
 44
297.0
 45
210.0
 46
0.0
 47
0.0
 48
969.1120635225747
 49
1410.089773188028
140
997.7071895623687
141
1431.243016253039
142
1.0
143
20.0
 70
 11952
 72
     1
 73
     0
 74
     4
  7

 75
    22
147
0.05
 76
     0
 77
     2
 78
   300
148
-969.1120635225747
149
-1410.089773188028
100
AcDbLayout
  1
Model
 70
     1
 71
     0
 10
0.0
 20
0.0
 11
12.0
 21
9.0
 12
0.0
 22
0.0
 32
0.0
 14
0.0
 24
0.0
 34
0.0
 15
0.0
 25
0.0
 35
0.0
146
0.0
 13
0.0
 23
0.0
 33
0.0
 16
1.0
 26
0.0
 36
0.0
 17
0.0
 27
1.0
 37
0.0
 76
     0
330
2
331
1FED
1001
ACAD_PSEXT
1000
\U+C5C6\U+C74C
1000
\U+C5C6\U+C74C
1000
\U+C801\U+C6A9 \U+AC00\U+B2A5\U+D558\U+C9C0 \U+C54A\U+C74C
1000
\U+BC30\U+CE58\U+AC00 \U+C0C8\U+B85C\U+C6B4 \U+D50C\U+B85C\U+D130 \U+AD6C\U+C131\U+C744 \U+C120\U+D0DD\U+D560 \U+B54C\U+AE4C\U+C9C0 \U+D50C\U+B86F\U+B418\U+C9C0 \U+C54A\U+C2B5\U+B2C8\U+B2E4.
1070
     0
  0
MATERIAL
  5
1FFB
102
{ACAD_XDICTIONARY
360
201D
102
}
102
{ACAD_REACTORS
330
5A2
102
}
330
5A2
100
AcDbMaterial
  1
ByBlock
  0
MATERIAL
  5
1FFA
102
{ACAD_XDICTIONARY
360
201B
102
}
102
{ACAD_REACTORS
330
5A2
102
}
330
5A2
100
AcDbMaterial
  1
ByLayer
  0
MATERIAL
  5
1FFC
102
{ACAD_XDICTIONARY
360
201F
102
}
102
{ACAD_REACTORS
330
5A2
102
}
330
5A2
100
AcDbMaterial
  1
Global
  0
MLINESTYLE
  5
23
102
{ACAD_REACTORS
330
21
102
}
330
21
100
AcDbMlineStyle
  2
STANDARD
 70
     0
  3

 62
   256
 51
90.0
 52
90.0
 71
     2
 49
0.5
 62
   256
  6
BYLAYER
 49
-0.5
 62
   256
  6
BYLAYER
  0
ACDBPLACEHOLDER
  5
5
102
{ACAD_REACTORS
330
6
102
}
330
6
  0
TABLESTYLE
  5
5C4
102
{ACAD_XDICTIONARY
360
2019
102
}
102
{ACAD_REACTORS
330
5C3
102
}
330
5C3
100
AcDbTableStyle
  3
Standard
 70
     0
 71
     0
 40
1.5
 41
1.5
280
     0
281
     0
  7
Standard
140
4.5
170
     2
 62
     0
 63
     7
283
     0
274
    -2
284
     1
 64
     0
275
    -2
285
     1
 65
     0
276
    -2
286
     1
 66
     0
277
    -2
287
     1
 67
     0
278
    -2
288
     1
 68
     0
279
    -2
289
     1
 69
     0
  7
Standard
140
6.0
170
     5
 62
     0
 63
     7
283
     0
274
    -2
284
     1
 64
     0
275
    -2
285
     1
 65
     0
276
    -2
286
     1
 66
     0
277
    -2
287
     1
 67
     0
278
    -2
288
     1
 68
     0
279
    -2
289
     1
 69
     0
  7
Standard
140
4.5
170
     5
 62
     0
 63
     7
283
     0
274
    -2
284
     1
 64
     0
275
    -2
285
     1
 65
     0
276
    -2
286
     1
 66
     0
277
    -2
287
     1
 67
     0
278
    -2
288
     1
 68
     0
279
    -2
289
     1
 69
     0
  0
VISUALSTYLE
  5
2003
102
{ACAD_REACTORS
330
1FFD
102
}
330
1FFD
100
AcDbVisualStyle
  2
2dWireframe
 70
     4
 71
     0
 72
     2
 73
     0
 90
        0
 40
-0.6
 41
-30.0
 62
     5
 63
     7
421
 16777215
 74
     1
 91
        4
 64
     7
 65
   257
 75
     1
175
     1
 42
1.0
 92
        0
 66
   257
 43
1.0
 76
     1
 77
     6
 78
     2
 67
     7
 79
     5
170
     0
171
     0
290
     0
174
     0
 93
        1
 44
0.0
173
     0
291
     0
 45
0.0
1001
ACAD
1000
AcDbSavedByObjectVersion
1070
     0
  0
VISUALSTYLE
  5
2005
102
{ACAD_REACTORS
330
1FFD
102
}
330
1FFD
100
AcDbVisualStyle
  2
3D Hidden
 70
     6
 71
     1
 72
     2
 73
     2
 90
        0
 40
-0.6
 41
-30.0
 62
     5
 63
     7
421
 16777215
 74
     2
 91
        2
 64
     7
 65
   257
 75
     2
175
     1
 42
40.0
 92
        0
 66
   257
 43
1.0
 76
     1
 77
     6
 78
     2
 67
     7
 79
     3
170
     0
171
     0
290
     0
174
     0
 93
        1
 44
0.0
173
     0
291
     0
 45
0.0
1001
ACAD
1000
AcDbSavedByObjectVersion
1070
     0
  0
VISUALSTYLE
  5
2004
102
{ACAD_REACTORS
330
1FFD
102
}
330
1FFD
100
AcDbVisualStyle
  2
3dWireframe
 70
     5
 71
     0
 72
     2
 73
     0
 90
        0
 40
-0.6
 41
-30.0
 62
     5
 63
     7
421
 16777215
 74
     1
 91
        4
 64
     7
 65
   257
 75
     1
175
     1
 42
1.0
 92
        0
 66
   257
 43
1.0
 76
     1
 77
     6
 78
     2
 67
     7
 79
     5
170
     0
171
     0
290
     0
174
     0
 93
        1
 44
0.0
173
     0
291
     0
 45
0.0
1001
ACAD
1000
AcDbSavedByObjectVersion
1070
     0
  0
VISUALSTYLE
  5
2002
102
{ACAD_REACTORS
330
1FFD
102
}
330
1FFD
100
AcDbVisualStyle
  2
Basic
 70
     7
 71
     1
 72
     0
 73
     1
 90
        0
 40
-0.6
 41
-30.0
 62
     5
 63
     7
421
 16777215
 74
     0
 91
        4
 64
     7
 65
   257
 75
     1
175
     1
 42
1.0
 92
        8
 66
     7
 43
1.0
 76
     1
 77
     6
 78
     2
 67
     7
 79
     5
170
     0
171
     0
290
     0
174
     0
 93
        1
 44
0.0
173
     0
291
     1
 45
0.0
1001
ACAD
1000
AcDbSavedByObjectVersion
1070
     0
  0
VISUALSTYLE
  5
2009
102
{ACAD_REACTORS
330
1FFD
102
}
330
1FFD
100
AcDbVisualStyle
  2
Brighten
 70
    12
 71
     2
 72
     2
 73
     0
 90
        0
 40
-0.6
 41
-30.0
 62
     5
 63
     7
421
 16777215
 74
     1
 91
        4
 64
     7
 65
   257
 75
     1
175
     1
 42
1.0
 92
        8
 66
     7
 43
1.0
 76
     1
 77
     6
 78
     2
 67
     7
 79
     5
170
     0
171
     0
290
     0
174
     0
 93
        1
 44
50.0
173
     0
291
     1
 45
0.0
1001
ACAD
1000
AcDbSavedByObjectVersion
1070
     0
  0
VISUALSTYLE
  5
200D
102
{ACAD_REACTORS
330
1FFD
102
}
330
1FFD
100
AcDbVisualStyle
  2
ColorChange
 70
    16
 71
     2
 72
     2
 73
     3
 90
        0
 40
-0.6
 41
-30.0
 62
     5
 63
     8
421
  8421504
 74
     1
 91
        4
 64
     7
 65
   257
 75
     1
175
     1
 42
1.0
 92
        8
 66
     8
424
  8421504
 43
1.0
 76
     1
 77
     6
 78
     2
 67
     7
 79
     5
170
     0
171
     0
290
     0
174
     0
 93
        1
 44
0.0
173
     0
291
     1
 45
0.0
1001
ACAD
1000
AcDbSavedByObjectVersion
1070
     0
  0
VISUALSTYLE
  5
2006
102
{ACAD_REACTORS
330
1FFD
102
}
330
1FFD
100
AcDbVisualStyle
  2
Conceptual
 70
     9
 71
     3
 72
     2
 73
     0
 90
        0
 40
-0.6
 41
-30.0
 62
     5
 63
     7
421
 16777215
 74
     2
 91
        2
 64
     7
 65
   257
 75
     1
175
     1
 42
40.0
 92
        8
 66
     7
 43
1.0
 76
     1
 77
     6
 78
     2
 67
     7
 79
     3
170
     0
171
     0
290
     0
174
     0
 93
        1
 44
0.0
173
     0
291
     0
 45
0.0
1001
ACAD
1000
AcDbSavedByObjectVersion
1070
     0
  0
VISUALSTYLE
  5
2008
102
{ACAD_REACTORS
330
1FFD
102
}
330
1FFD
100
AcDbVisualStyle
  2
Dim
 70
    11
 71
     2
 72
     2
 73
     0
 90
        0
 40
-0.6
 41
-30.0
 62
     5
 63
     7
421
 16777215
 74
     1
 91
        4
 64
     7
 65
   257
 75
     1
175
     1
 42
1.0
 92
        8
 66
     7
 43
1.0
 76
     1
 77
     6
 78
     2
 67
     7
 79
     5
170
     0
171
     0
290
     0
174
     0
 93
        1
 44
-50.0
173
     0
291
     1
 45
0.0
1001
ACAD
1000
AcDbSavedByObjectVersion
1070
     0
  0
VISUALSTYLE
  5
200C
102
{ACAD_REACTORS
330
1FFD
102
}
330
1FFD
100
AcDbVisualStyle
  2
Facepattern
 70
    15
 71
     2
 72
     2
 73
     0
 90
        0
 40
-0.6
 41
-30.0
 62
     5
 63
     7
421
 16777215
 74
     1
 91
        4
 64
     7
 65
   257
 75
     1
175
     1
 42
1.0
 92
        8
 66
     7
 43
1.0
 76
     1
 77
     6
 78
     2
 67
     7
 79
     5
170
     0
171
     0
290
     0
174
     0
 93
        1
 44
0.0
173
     0
291
     1
 45
0.0
1001
ACAD
1000
AcDbSavedByObjectVersion
1070
     0
  0
VISUALSTYLE
  5
1FFE
102
{ACAD_REACTORS
330
1FFD
102
}
330
1FFD
100
AcDbVisualStyle
  2
Flat
 70
     0
 71
     2
 72
     1
 73
     1
 90
        2
 40
-0.6
 41
30.0
 62
     5
 63
     7
421
 16777215
 74
     0
 91
        4
 64
     7
 65
   257
 75
     1
175
     1
 42
1.0
 92
        8
 66
     7
 43
1.0
 76
     1
 77
     6
 78
     2
 67
     7
 79
     5
170
     0
171
     0
290
     0
174
     0
 93
       13
 44
0.0
173
     0
291
     1
 45
0.0
1001
ACAD
1000
AcDbSavedByObjectVersion
1070
     0
  0
VISUALSTYLE
  5
1FFF
102
{ACAD_REACTORS
330
1FFD
102
}
330
1FFD
100
AcDbVisualStyle
  2
FlatWithEdges
 70
     1
 71
     2
 72
     1
 73
     1
 90
        2
 40
-0.6
 41
30.0
 62
     5
 63
     7
421
 16777215
 74
     1
 91
        4
 64
     7
 65
   257
 75
     1
175
     1
 42
1.0
 92
        0
 66
   257
 43
1.0
 76
     1
 77
     6
 78
     2
 67
     7
 79
     5
170
     0
171
     0
290
     0
174
     0
 93
       13
 44
0.0
173
     0
291
     1
 45
0.0
1001
ACAD
1000
AcDbSavedByObjectVersion
1070
     0
  0
VISUALSTYLE
  5
2000
102
{ACAD_REACTORS
330
1FFD
102
}
330
1FFD
100
AcDbVisualStyle
  2
Gouraud
 70
     2
 71
     2
 72
     2
 73
     1
 90
        2
 40
-0.6
 41
30.0
 62
     5
 63
     7
421
 16777215
 74
     0
 91
        4
 64
     7
 65
   257
 75
     1
175
     1
 42
1.0
 92
        0
 66
     7
 43
1.0
 76
     1
 77
     6
 78
     2
 67
     7
 79
     5
170
     0
171
     0
290
     0
174
     0
 93
       13
 44
0.0
173
     0
291
     1
 45
0.0
1001
ACAD
1000
AcDbSavedByObjectVersion
1070
     0
  0
VISUALSTYLE
  5
2001
102
{ACAD_REACTORS
330
1FFD
102
}
330
1FFD
100
AcDbVisualStyle
  2
GouraudWithEdges
 70
     3
 71
     2
 72
     2
 73
     1
 90
        2
 40
-0.6
 41
30.0
 62
     5
 63
     7
421
 16777215
 74
     1
 91
        4
 64
     7
 65
   257
 75
     1
175
     1
 42
1.0
 92
        0
 66
   257
 43
1.0
 76
     1
 77
     6
 78
     2
 67
     7
 79
     5
170
     0
171
     0
290
     0
174
     0
 93
       13
 44
0.0
173
     0
291
     1
 45
0.0
1001
ACAD
1000
AcDbSavedByObjectVersion
1070
     0
  0
VISUALSTYLE
  5
200B
102
{ACAD_REACTORS
330
1FFD
102
}
330
1FFD
100
AcDbVisualStyle
  2
Linepattern
 70
    14
 71
     2
 72
     2
 73
     0
 90
        0
 40
-0.6
 41
-30.0
 62
     5
 63
     7
421
 16777215
 74
     1
 91
        4
 64
     7
 65
   257
 75
     7
175
     7
 42
1.0
 92
        8
 66
     7
 43
1.0
 76
     1
 77
     6
 78
     2
 67
     7
 79
     5
170
     0
171
     0
290
     0
174
     0
 93
        1
 44
0.0
173
     0
291
     1
 45
0.0
1001
ACAD
1000
AcDbSavedByObjectVersion
1070
     0
  0
VISUALSTYLE
  5
2007
102
{ACAD_REACTORS
330
1FFD
102
}
330
1FFD
100
AcDbVisualStyle
  2
Realistic
 70
     8
 71
     2
 72
     2
 73
     0
 90
        0
 40
-0.6
 41
-30.0
 62
     5
 63
     7
421
 16777215
 74
     1
 91
        0
 64
     7
 65
   257
 75
     1
175
     1
 42
1.0
 92
        8
 66
     8
424
  7895160
 43
1.0
 76
     1
 77
     6
 78
     2
 67
     7
 79
     5
170
     0
171
     0
290
     0
174
     0
 93
       13
 44
0.0
173
     0
291
     0
 45
0.0
1001
ACAD
1000
AcDbSavedByObjectVersion
1070
     0
  0
VISUALSTYLE
  5
200A
102
{ACAD_REACTORS
330
1FFD
102
}
330
1FFD
100
AcDbVisualStyle
  2
Thicken
 70
    13
 71
     2
 72
     2
 73
     0
 90
        0
 40
-0.6
 41
-30.0
 62
     5
 63
     7
421
 16777215
 74
     1
 91
        4
 64
     7
 65
   257
 75
     1
175
     1
 42
1.0
 92
       12
 66
     7
 43
1.0
 76
     1
 77
     6
 78
     2
 67
     7
 79
     5
170
     0
171
     0
290
     0
174
     0
 93
        1
 44
0.0
173
     0
291
     1
 45
0.0
1001
ACAD
1000
AcDbSavedByObjectVersion
1070
     0
  0
DICTIONARYVAR
  5
5EE
102
{ACAD_REACTORS
330
81
102
}
330
81
100
DictionaryVariables
280
     0
  1
STANDARD
  0
DICTIONARYVAR
  5
82
102
{ACAD_REACTORS
330
81
102
}
330
81
100
DictionaryVariables
280
     0
  1
1
  0
DICTIONARYVAR
  5
1F5B
102
{ACAD_REACTORS
330
81
102
}
330
81
100
DictionaryVariables
280
     0
  1

  0
DICTIONARY
  5
201D
330
1FFB
100
AcDbDictionary
280
     1
281
     1
  3
ACAD_XREC_ROUNDTRIP
360
201E
  0
DICTIONARY
  5
201B
330
1FFA
100
AcDbDictionary
280
     1
281
     1
  3
ACAD_XREC_ROUNDTRIP
360
201C
  0
DICTIONARY
  5
201F
330
1FFC
100
AcDbDictionary
280
     1
281
     1
  3
ACAD_XREC_ROUNDTRIP
360
2020
  0
DICTIONARY
  5
2019
330
5C4
100
AcDbDictionary
280
     1
281
     1
  3
ACAD_XREC_ROUNDTRIP
360
201A
  0
XRECORD
  5
201E
102
{ACAD_REACTORS
330
201D
102
}
330
201D
100
AcDbXrecord
280
     1
102
MATERIAL
148
0.0
149
0.0
149
0.0
 93
        0
 94
       63
282
     0
 72
     1
 77
     1
171
     1
175
     1
179
     1
273
     0
  0
XRECORD
  5
201C
102
{ACAD_REACTORS
330
201B
102
}
330
201B
100
AcDbXrecord
280
     1
102
MATERIAL
148
0.0
149
0.0
149
0.0
 93
        0
 94
       63
282
     0
 72
     1
 77
     1
171
     1
175
     1
179
     1
273
     0
  0
XRECORD
  5
2020
102
{ACAD_REACTORS
330
201F
102
}
330
201F
100
AcDbXrecord
280
     1
102
MATERIAL
148
0.0
149
0.0
149
0.0
 93
        0
 94
       63
282
     0
 72
     1
 77
     1
171
     1
175
     1
179
     1
273
     0
  0
XRECORD
  5
201A
102
{ACAD_REACTORS
330
2019
102
}
330
2019
100
AcDbXrecord
280
     1
102
ACAD_ROUNDTRIP_PRE2007_TABLESTYLE
 90
        4
 91
        0
  1

 92
        4
 93
        0
  2

 94
        4
 95
        0
  3

  0
ENDSEC
  0
EOF
