  0
SECTION
  2
HEADER
  9
$ACADVER
  1
AC1018
  9
$ACADMAINTVER
 70
   104
  9
$DWGCODEPAGE
  3
ANSI_1252
  9
$LASTSAVEDBY
  1
user
  9
$INSBASE
 10
0.0
 20
0.0
 30
0.0
  9
$EXTMIN
 10
1624.492807675956
 20
1464.278689812656
 30
0.0
  9
$EXTMAX
 10
1654.807707675955
 20
1482.782589812656
 30
0.0
  9
$LIMMIN
 10
0.0
 20
0.0
  9
$LIMMAX
 10
420.0
 20
297.0
  9
$ORTHOMODE
 70
     0
  9
$REGENMODE
 70
     1
  9
$FILLMODE
 70
     1
  9
$QTEXTMODE
 70
     0
  9
$MIRRTEXT
 70
     0
  9
$LTSCALE
 40
1.0
  9
$ATTMODE
 70
     1
  9
$TEXTSIZE
 40
0.3937
  9
$TRACEWID
 40
1.0
  9
$TEXTSTYLE
  7
\U+C2A4\U+D0C0\U+C77C2
  9
$CLAYER
  8
0
  9
$CELTYPE
  6
ByLayer
  9
$CECOLOR
 62
   256
  9
$CELTSCALE
 40
1.0
  9
$DISPSILH
 70
     0
  9
$DIMSCALE
 40
1.0
  9
$DIMASZ
 40
0.2
  9
$DIMEXO
 40
0.1
  9
$DIMDLI
 40
0.039
  9
$DIMRND
 40
0.0
  9
$DIMDLE
 40
0.0
  9
$DIMEXE
 40
0.2
  9
$DIMTP
 40
0.0
  9
$DIMTM
 40
0.0
  9
$DIMTXT
 40
2.5
  9
$DIMCEN
 40
0.039
  9
$DIMTSZ
 40
0.0
  9
$DIMTOL
 70
     0
  9
$DIMLIM
 70
     0
  9
$DIMTIH
 70
     0
  9
$DIMTOH
 70
     0
  9
$DIMSE1
 70
     0
  9
$DIMSE2
 70
     0
  9
$DIMTAD
 70
     1
  9
$DIMZIN
 70
     8
  9
$DIMBLK
  1

  9
$DIMASO
 70
     1
  9
$DIMSHO
 70
     1
  9
$DIMPOST
  1

  9
$DIMAPOST
  1

  9
$DIMALT
 70
     0
  9
$DIMALTD
 70
     2
  9
$DIMALTF
 40
0.0394
  9
$DIMLFAC
 40
1.0
  9
$DIMTOFL
 70
     1
  9
$DIMTVP
 40
1.0
  9
$DIMTIX
 70
     0
  9
$DIMSOXD
 70
     0
  9
$DIMSAH
 70
     0
  9
$DIMBLK1
  1

  9
$DIMBLK2
  1

  9
$DIMSTYLE
  2
DIN
  9
$DIMCLRD
 70
     0
  9
$DIMCLRE
 70
     0
  9
$DIMCLRT
 70
     0
  9
$DIMTFAC
 40
1.0
  9
$DIMGAP
 40
0.05
  9
$DIMJUST
 70
     0
  9
$DIMSD1
 70
     0
  9
$DIMSD2
 70
     0
  9
$DIMTOLJ
 70
     1
  9
$DIMTZIN
 70
     0
  9
$DIMALTZ
 70
     0
  9
$DIMALTTZ
 70
     0
  9
$DIMUPT
 70
     0
  9
$DIMDEC
 70
     4
  9
$DIMTDEC
 70
     4
  9
$DIMALTU
 70
     8
  9
$DIMALTTD
 70
     2
  9
$DIMTXSTY
  7
\U+C2A4\U+D0C0\U+C77C2
  9
$DIMAUNIT
 70
     0
  9
$DIMADEC
 70
     0
  9
$DIMALTRND
 40
0.0
  9
$DIMAZIN
 70
     0
  9
$DIMDSEP
 70
    46
  9
$DIMATFIT
 70
     3
  9
$DIMFRAC
 70
     0
  9
$DIMLDRBLK
  1

  9
$DIMLUNIT
 70
     6
  9
$DIMLWD
 70
    -2
  9
$DIMLWE
 70
    -2
  9
$DIMTMOVE
 70
     0
  9
$LUNITS
 70
     3
  9
$LUPREC
 70
     4
  9
$SKETCHINC
 40
1.0
  9
$FILLETRAD
 40
1.376999999999999
  9
$AUNITS
 70
     0
  9
$AUPREC
 70
     0
  9
$MENU
  1
.
  9
$ELEVATION
 40
0.0
  9
$PELEVATION
 40
0.0
  9
$THICKNESS
 40
0.0
  9
$LIMCHECK
 70
     0
  9
$CHAMFERA
 40
0.0
  9
$CHAMFERB
 40
0.0
  9
$CHAMFERC
 40
0.0
  9
$CHAMFERD
 40
0.0
  9
$SKPOLY
 70
     0
  9
$TDCREATE
 40
2454393.137688252
  9
$TDUCREATE
 40
2454393.346021586
  9
$TDUPDATE
 40
2458464.659720752
  9
$TDUUPDATE
 40
2458464.868054086
  9
$TDINDWG
 40
0.4861237269
  9
$TDUSRTIMER
 40
0.4861222685
  9
$USRTIMER
 70
     1
  9
$ANGBASE
 50
0.0
  9
$ANGDIR
 70
     0
  9
$PDMODE
 70
     0
  9
$PDSIZE
 40
0.0
  9
$PLINEWID
 40
0.0
  9
$SPLFRAME
 70
     0
  9
$SPLINETYPE
 70
     6
  9
$SPLINESEGS
 70
     8
  9
$HANDSEED
  5
2425
  9
$SURFTAB1
 70
     6
  9
$SURFTAB2
 70
     6
  9
$SURFTYPE
 70
     6
  9
$SURFU
 70
     6
  9
$SURFV
 70
     6
  9
$UCSBASE
  2

  9
$UCSNAME
  2

  9
$UCSORG
 10
0.0
 20
0.0
 30
0.0
  9
$UCSXDIR
 10
1.0
 20
0.0
 30
0.0
  9
$UCSYDIR
 10
0.0
 20
1.0
 30
0.0
  9
$UCSORTHOREF
  2

  9
$UCSORTHOVIEW
 70
     0
  9
$UCSORGTOP
 10
0.0
 20
0.0
 30
0.0
  9
$UCSORGBOTTOM
 10
0.0
 20
0.0
 30
0.0
  9
$UCSORGLEFT
 10
0.0
 20
0.0
 30
0.0
  9
$UCSORGRIGHT
 10
0.0
 20
0.0
 30
0.0
  9
$UCSORGFRONT
 10
0.0
 20
0.0
 30
0.0
  9
$UCSORGBACK
 10
0.0
 20
0.0
 30
0.0
  9
$PUCSBASE
  2

  9
$PUCSNAME
  2

  9
$PUCSORG
 10
0.0
 20
0.0
 30
0.0
  9
$PUCSXDIR
 10
1.0
 20
0.0
 30
0.0
  9
$PUCSYDIR
 10
0.0
 20
1.0
 30
0.0
  9
$PUCSORTHOREF
  2

  9
$PUCSORTHOVIEW
 70
     0
  9
$PUCSORGTOP
 10
0.0
 20
0.0
 30
0.0
  9
$PUCSORGBOTTOM
 10
0.0
 20
0.0
 30
0.0
  9
$PUCSORGLEFT
 10
0.0
 20
0.0
 30
0.0
  9
$PUCSORGRIGHT
 10
0.0
 20
0.0
 30
0.0
  9
$PUCSORGFRONT
 10
0.0
 20
0.0
 30
0.0
  9
$PUCSORGBACK
 10
0.0
 20
0.0
 30
0.0
  9
$USERI1
 70
     0
  9
$USERI2
 70
     0
  9
$USERI3
 70
     0
  9
$USERI4
 70
     0
  9
$USERI5
 70
     0
  9
$USERR1
 40
0.0
  9
$USERR2
 40
0.0
  9
$USERR3
 40
0.0
  9
$USERR4
 40
0.0
  9
$USERR5
 40
0.0
  9
$WORLDVIEW
 70
     1
  9
$SHADEDGE
 70
     3
  9
$SHADEDIF
 70
    70
  9
$TILEMODE
 70
     1
  9
$MAXACTVP
 70
    64
  9
$PINSBASE
 10
0.0
 20
0.0
 30
0.0
  9
$PLIMCHECK
 70
     0
  9
$PEXTMIN
 10
1.000000000000000E+20
 20
1.000000000000000E+20
 30
1.000000000000000E+20
  9
$PEXTMAX
 10
-1.000000000000000E+20
 20
-1.000000000000000E+20
 30
-1.000000000000000E+20
  9
$PLIMMIN
 10
0.0071835950613108
 20
0.0009369707933118
  9
$PLIMMAX
 10
841.0071835950612
 20
594.0009369707931
  9
$UNITMODE
 70
     0
  9
$VISRETAIN
 70
     1
  9
$PLINEGEN
 70
     0
  9
$PSLTSCALE
 70
     1
  9
$TREEDEPTH
 70
  3020
  9
$CMLSTYLE
  2
Standard
  9
$CMLJUST
 70
     0
  9
$CMLSCALE
 40
20.0
  9
$PROXYGRAPHICS
 70
     1
  9
$MEASUREMENT
 70
     1
  9
$CELWEIGHT
370
    -1
  9
$ENDCAPS
280
     0
  9
$JOINSTYLE
280
     0
  9
$LWDISPLAY
290
     0
  9
$INSUNITS
 70
     1
  9
$HYPERLINKBASE
  1

  9
$STYLESHEET
  1

  9
$XEDIT
290
     1
  9
$CEPSNTYPE
380
     0
  9
$PSTYLEMODE
290
     1
  9
$FINGERPRINTGUID
  2
{AC2FA5CB-6F18-4BC2-9C5F-F25C10372E5B}
  9
$VERSIONGUID
  2
{A8E3864D-04EE-4976-8AE8-5E0BC1F4F1A1}
  9
$EXTNAMES
290
     1
  9
$PSVPSCALE
 40
0.0
  9
$OLESTARTUP
290
     0
  9
$SORTENTS
280
   127
  9
$INDEXCTL
280
     0
  9
$HIDETEXT
280
     0
  9
$XCLIPFRAME
290
     0
  9
$HALOGAP
280
     0
  9
$OBSCOLOR
 70
   257
  9
$OBSLTYPE
280
     0
  9
$INTERSECTIONDISPLAY
280
     0
  9
$INTERSECTIONCOLOR
 70
   257
  9
$DIMASSOC
280
     1
  9
$PROJECTNAME
  1

  0
ENDSEC
  0
SECTION
  2
CLASSES
  0
CLASS
  1
ACDBDICTIONARYWDFLT
  2
AcDbDictionaryWithDefault
  3
ObjectDBX Classes
 90
        0
 91
        1
280
     0
281
     0
  0
CLASS
  1
PLOTSETTINGS
  2
AcDbPlotSettings
  3
ObjectDBX Classes
 90
        0
 91
        0
280
     0
281
     0
  0
CLASS
  1
DICTIONARYVAR
  2
AcDbDictionaryVar
  3
ObjectDBX Classes
 90
        0
 91
        3
280
     0
281
     0
  0
CLASS
  1
TABLESTYLE
  2
AcDbTableStyle
  3
ObjectDBX Classes
 90
     4095
 91
        1
280
     0
281
     0
  0
CLASS
  1
DIMASSOC
  2
AcDbDimAssoc
  3
"AcDbDimAssoc|Product Desc:     AcDim ARX App For Dimension|Company:          Autodesk, Inc.|WEB Address:      www.autodesk.com"
 90
        0
 91
        0
280
     0
281
     0
  0
CLASS
  1
SORTENTSTABLE
  2
AcDbSortentsTable
  3
ObjectDBX Classes
 90
        0
 91
        2
280
     0
281
     0
  0
CLASS
  1
MATERIAL
  2
AcDbMaterial
  3
ObjectDBX Classes
 90
     1024
 91
        3
280
     0
281
     0
  0
CLASS
  1
VISUALSTYLE
  2
AcDbVisualStyle
  3
ObjectDBX Classes
 90
     4095
 91
       16
280
     0
281
     0
  0
ENDSEC
  0
SECTION
  2
TABLES
  0
TABLE
  2
VPORT
  5
19
330
0
100
AcDbSymbolTable
 70
     1
  0
VPORT
  5
23F8
330
19
100
AcDbSymbolTableRecord
100
AcDbViewportTableRecord
  2
*Active
 70
     0
 10
0.0
 20
0.0
 11
1.0
 21
1.0
 12
1650.043632345342
 22
1472.607529407642
 13
0.0
 23
0.0
 14
10.0
 24
10.0
 15
10.0
 25
10.0
 16
0.0
 26
0.0
 36
1.0
 17
0.0
 27
0.0
 37
0.0
 40
16.29830358229537
 41
2.738095238095238
 42
50.0
 43
0.0
 44
0.0
 50
0.0
 51
0.0
 71
     0
 72
  1000
 73
     1
 74
     3
 75
     0
 76
     0
 77
     0
 78
     0
281
     0
 65
     1
110
0.0
120
0.0
130
0.0
111
1.0
121
0.0
131
0.0
112
0.0
122
1.0
132
0.0
 79
     0
146
0.0
  0
ENDTAB
  0
TABLE
  2
LTYPE
  5
14
330
0
100
AcDbSymbolTable
 70
     2
  0
LTYPE
  5
15
330
14
100
AcDbSymbolTableRecord
100
AcDbLinetypeTableRecord
  2
ByBlock
 70
     0
  3

 72
    65
 73
     0
 40
0.0
  0
LTYPE
  5
16
330
14
100
AcDbSymbolTableRecord
100
AcDbLinetypeTableRecord
  2
ByLayer
 70
     0
  3

 72
    65
 73
     0
 40
0.0
  0
LTYPE
  5
8
330
14
100
AcDbSymbolTableRecord
100
AcDbLinetypeTableRecord
  2
Continuous
 70
     0
  3
Solid line
 72
    65
 73
     0
 40
0.0
  0
LTYPE
  5
204C
330
14
100
AcDbSymbolTableRecord
100
AcDbLinetypeTableRecord
  2
ACAD_ISO04W100
 70
     0
  3
ISO long-dash dot ____ . ____ . ____ . ____ . _
 72
    65
 73
     4
 40
30.0
 49
24.0
 74
     0
 49
-3.0
 74
     0
 49
0.0
 74
     0
 49
-3.0
 74
     0
  0
ENDTAB
  0
TABLE
  2
LAYER
  5
10
102
{ACAD_XDICTIONARY
360
23CD
102
}
330
0
100
AcDbSymbolTable
 70
     9
  0
LAYER
  5
4
330
10
100
AcDbSymbolTableRecord
100
AcDbLayerTableRecord
  2
0
 70
     0
 62
     7
  6
Continuous
370
    -3
390
5
  0
LAYER
  5
8E
330
10
100
AcDbSymbolTableRecord
100
AcDbLayerTableRecord
  2
07
 70
     0
 62
     7
  6
Continuous
370
    -3
390
5
  0
LAYER
  5
8F
330
10
100
AcDbSymbolTableRecord
100
AcDbLayerTableRecord
  2
035
 70
     0
 62
     5
  6
Continuous
370
    -3
390
5
  0
LAYER
  5
90
330
10
100
AcDbSymbolTableRecord
100
AcDbLayerTableRecord
  2
05
 70
     0
 62
     6
  6
Continuous
370
    -3
390
5
  0
LAYER
  5
91
330
10
100
AcDbSymbolTableRecord
100
AcDbLayerTableRecord
  2
025
 70
     0
 62
     1
  6
Continuous
370
    -3
390
5
  0
LAYER
  5
5CE
330
10
100
AcDbSymbolTableRecord
100
AcDbLayerTableRecord
  2
Defpoints
 70
     0
 62
     7
  6
Continuous
290
     0
370
    -3
390
5
  0
LAYER
  5
62B
330
10
100
AcDbSymbolTableRecord
100
AcDbLayerTableRecord
  2
\U+7C97\U+5B9E\U+7EBF
 70
     0
 62
     7
  6
Continuous
370
    30
390
5
  0
LAYER
  5
62C
330
10
100
AcDbSymbolTableRecord
100
AcDbLayerTableRecord
  2
\U+6807\U+6CE8\U+7EBF
 70
     0
 62
     7
  6
Continuous
370
    13
390
5
  0
LAYER
  5
204D
330
10
100
AcDbSymbolTableRecord
100
AcDbLayerTableRecord
  2
\U+4E2D\U+5FC3\U+7EBF
 70
     0
 62
     7
  6
ACAD_ISO04W100
370
    18
390
5
  0
ENDTAB
  0
TABLE
  2
STYLE
  5
11
330
0
100
AcDbSymbolTable
 70
     4
  0
STYLE
  5
12
330
11
100
AcDbSymbolTableRecord
100
AcDbTextStyleTableRecord
  2
Standard
 70
     0
 40
0.0
 41
1.0
 50
0.0
 71
     0
 42
2.5
  3
txt
  4

  0
STYLE
  5
31
330
11
100
AcDbSymbolTableRecord
100
AcDbTextStyleTableRecord
  2
ISO Proportional
 70
     0
 40
0.0
 41
1.0
 50
0.0
 71
     0
 42
2.5
  3
isocp.shx
  4

  0
STYLE
  5
B96
330
11
100
AcDbSymbolTableRecord
100
AcDbTextStyleTableRecord
  2
\U+C2A4\U+D0C0\U+C77C1
 70
     0
 40
0.1968
 41
1.0
 50
0.0
 71
     0
 42
2.5
  3
txt.shx
  4

  0
STYLE
  5
B97
330
11
100
AcDbSymbolTableRecord
100
AcDbTextStyleTableRecord
  2
\U+C2A4\U+D0C0\U+C77C2
 70
     0
 40
0.3937
 41
1.0
 50
0.0
 71
     0
 42
0.3937
  3
txt.shx
  4

  0
ENDTAB
  0
TABLE
  2
VIEW
  5
17
330
0
100
AcDbSymbolTable
 70
     0
  0
ENDTAB
  0
TABLE
  2
UCS
  5
18
330
0
100
AcDbSymbolTable
 70
     0
  0
ENDTAB
  0
TABLE
  2
APPID
  5
1B
330
0
100
AcDbSymbolTable
 70
    12
  0
APPID
  5
1C
330
1B
100
AcDbSymbolTableRecord
100
AcDbRegAppTableRecord
  2
ACAD
 70
     0
  0
APPID
  5
346
330
1B
100
AcDbSymbolTableRecord
100
AcDbRegAppTableRecord
  2
GENIUS_GENTRA_14
 70
     0
  0
APPID
  5
347
330
1B
100
AcDbSymbolTableRecord
100
AcDbRegAppTableRecord
  2
GENIUS_GENODEF_13
 70
     0
  0
APPID
  5
348
330
1B
100
AcDbSymbolTableRecord
100
AcDbRegAppTableRecord
  2
GENIUS_GENOBJ-N-TIT_13
 70
     0
  0
APPID
  5
349
330
1B
100
AcDbSymbolTableRecord
100
AcDbRegAppTableRecord
  2
GENIUS_GENTITLE_13
 70
     0
  0
APPID
  5
34A
330
1B
100
AcDbSymbolTableRecord
100
AcDbRegAppTableRecord
  2
GENIUS_GENOENT_13
 70
     0
  0
APPID
  5
34B
330
1B
100
AcDbSymbolTableRecord
100
AcDbRegAppTableRecord
  2
GENIUS_GENOREF_13
 70
     0
  0
APPID
  5
34C
330
1B
100
AcDbSymbolTableRecord
100
AcDbRegAppTableRecord
  2
GENIUS_GENOLIS_13
 70
     0
  0
APPID
  5
34D
330
1B
100
AcDbSymbolTableRecord
100
AcDbRegAppTableRecord
  2
GENIUS_GENOBJ-N-SDF_13
 70
     0
  0
APPID
  5
34E
330
1B
100
AcDbSymbolTableRecord
100
AcDbRegAppTableRecord
  2
GENIUS_GENSCREG_13
 70
     0
  0
APPID
  5
886
330
1B
100
AcDbSymbolTableRecord
100
AcDbRegAppTableRecord
  2
ACAD_DSTYLE_DIMTEXT_FILL
 70
     0
  0
APPID
  5
B8B
330
1B
100
AcDbSymbolTableRecord
100
AcDbRegAppTableRecord
  2
ACAD_PSEXT
 70
     0
  0
ENDTAB
  0
TABLE
  2
DIMSTYLE
  5
1D
330
0
100
AcDbSymbolTable
 70
     4
100
AcDbDimStyleTable
 71
     1
340
1E
  0
DIMSTYLE
105
1E
330
1D
100
AcDbSymbolTableRecord
100
AcDbDimStyleTableRecord
  2
DIN
 70
     0
 41
2.5
 42
0.625
 43
3.75
 44
1.25
 74
     0
 77
     1
 78
     8
140
2.5
141
2.5
143
0.0394
145
1.0
147
0.625
172
     1
273
     8
277
     6
340
12
  0
DIMSTYLE
105
62D
330
1D
100
AcDbSymbolTableRecord
100
AcDbDimStyleTableRecord
  2
ISO-25
 70
     0
 41
10.0
 42
0.625
 43
3.75
 44
10.0
 73
     0
 74
     0
 77
     1
 78
     8
140
20.0
141
2.5
143
0.03937007874016
147
10.0
171
     3
172
     1
271
     2
272
     2
274
     3
278
    44
279
     1
283
     0
284
     8
340
12
  0
DIMSTYLE
105
62E
330
1D
100
AcDbSymbolTableRecord
100
AcDbDimStyleTableRecord
  2
\U+526F\U+672CISO-25
 70
     0
 41
15.0
 42
0.625
 43
3.75
 44
2.0
 73
     0
 74
     0
 77
     1
 78
     8
140
22.0
141
2.5
143
0.03937007874016
147
10.0
171
     3
179
     1
271
     1
272
     1
274
     3
278
    44
279
     1
283
     0
284
     8
340
12
  0
DIMSTYLE
105
62F
330
1D
100
AcDbSymbolTableRecord
100
AcDbDimStyleTableRecord
  2
\U+526F\U+672C (2)ISO-25
 70
     0
 41
10.0
 42
0.625
 43
3.75
 44
10.0
 73
     0
 74
     0
 77
     1
 78
     8
140
10.0
141
2.5
143
0.03937007874016
147
10.0
171
     3
172
     1
271
     2
272
     2
274
     3
278
    44
283
     0
284
     8
340
12
  0
ENDTAB
  0
TABLE
  2
BLOCK_RECORD
  5
1
330
0
100
AcDbSymbolTable
 70
    12
  0
BLOCK_RECORD
  5
2
102
{ACAD_XDICTIONARY
360
95E
102
}
330
1
100
AcDbSymbolTableRecord
100
AcDbBlockTableRecord
  2
*Model_Space
340
A
  0
BLOCK_RECORD
  5
C
330
1
100
AcDbSymbolTableRecord
100
AcDbBlockTableRecord
  2
*Paper_Space
340
F
  0
BLOCK_RECORD
  5
22B0
330
1
100
AcDbSymbolTableRecord
100
AcDbBlockTableRecord
  2
*D0
340
0
  0
BLOCK_RECORD
  5
22BD
330
1
100
AcDbSymbolTableRecord
100
AcDbBlockTableRecord
  2
*D1
340
0
  0
BLOCK_RECORD
  5
22CA
330
1
100
AcDbSymbolTableRecord
100
AcDbBlockTableRecord
  2
*D2
340
0
  0
BLOCK_RECORD
  5
22D3
330
1
100
AcDbSymbolTableRecord
100
AcDbBlockTableRecord
  2
*D3
340
0
  0
BLOCK_RECORD
  5
22DC
330
1
100
AcDbSymbolTableRecord
100
AcDbBlockTableRecord
  2
*D4
340
0
  0
BLOCK_RECORD
  5
22E5
330
1
100
AcDbSymbolTableRecord
100
AcDbBlockTableRecord
  2
*D5
340
0
  0
BLOCK_RECORD
  5
22EE
330
1
100
AcDbSymbolTableRecord
100
AcDbBlockTableRecord
  2
*D6
340
0
  0
BLOCK_RECORD
  5
22F7
330
1
100
AcDbSymbolTableRecord
100
AcDbBlockTableRecord
  2
*D7
340
0
  0
BLOCK_RECORD
  5
2300
330
1
100
AcDbSymbolTableRecord
100
AcDbBlockTableRecord
  2
*D8
340
0
  0
BLOCK_RECORD
  5
2309
330
1
100
AcDbSymbolTableRecord
100
AcDbBlockTableRecord
  2
*D9
340
0
  0
BLOCK_RECORD
  5
239A
330
1
100
AcDbSymbolTableRecord
100
AcDbBlockTableRecord
  2
*D10
340
0
  0
ENDTAB
  0
ENDSEC
  0
SECTION
  2
BLOCKS
  0
BLOCK
  5
3
330
2
100
AcDbEntity
  8
0
100
AcDbBlockBegin
  2
*Model_Space
 70
     2
 10
0.0
 20
0.0
 30
0.0
  3
*Model_Space
  1

  0
ENDBLK
  5
9
330
2
100
AcDbEntity
  8
0
100
AcDbBlockEnd
  0
BLOCK
  5
D
330
C
100
AcDbEntity
 67
     1
  8
0
100
AcDbBlockBegin
  2
*Paper_Space
 70
     0
 10
0.0
 20
0.0
 30
0.0
  3
*Paper_Space
  1

  0
ENDBLK
  5
E
330
C
100
AcDbEntity
 67
     1
  8
0
100
AcDbBlockEnd
  0
BLOCK
  5
22BA
330
22B0
100
AcDbEntity
  8
0
100
AcDbBlockBegin
  2
*D0
 70
     1
 10
0.0
 20
0.0
 30
0.0
  3
*D0
  1

  0
LINE
  5
22B1
330
22B0
100
AcDbEntity
  8
0
 62
     0
370
    -2
100
AcDbLine
 10
1633.251057675953
 20
1464.042469812657
 30
0.0
 11
1623.382919437471
 21
1464.042469812657
 31
0.0
  0
LINE
  5
22B2
330
22B0
100
AcDbEntity
  8
0
 62
     0
370
    -2
100
AcDbLine
 10
1633.251057675956
 20
1483.018809812656
 30
0.0
 11
1623.382919437471
 21
1483.018809812656
 31
0.0
  0
LINE
  5
22B3
330
22B0
100
AcDbEntity
  8
0
 62
     0
370
    -2
100
AcDbLine
 10
1623.582919437471
 20
1464.242469812656
 30
0.0
 11
1623.582919437471
 21
1482.818809812656
 31
0.0
  0
SOLID
  5
22B4
330
22B0
100
AcDbEntity
  8
0
 62
     0
100
AcDbTrace
 10
1623.549586104138
 20
1464.242469812656
 30
0.0
 11
1623.616252770804
 21
1464.242469812656
 31
0.0
 12
1623.582919437471
 22
1464.042469812657
 32
0.0
 13
1623.582919437471
 23
1464.042469812657
 33
0.0
  0
SOLID
  5
22B5
330
22B0
100
AcDbEntity
  8
0
 62
     0
100
AcDbTrace
 10
1623.549586104138
 20
1482.818809812656
 30
0.0
 11
1623.616252770804
 21
1482.818809812656
 31
0.0
 12
1623.582919437471
 22
1483.018809812656
 32
0.0
 13
1623.582919437471
 23
1483.018809812656
 33
0.0
  0
MTEXT
  5
22B6
330
22B0
100
AcDbEntity
  8
0
 62
     0
100
AcDbMText
 10
1623.33606943747
 20
1473.530639812657
 30
0.0
 40
0.3937
 41
0.0
 71
     5
 72
     1
  1
\A1;18.9763
  7
\U+C2A4\U+D0C0\U+C77C2
 11
0.0000000000000001
 21
1.0
 31
0.0
 73
     1
 44
1.0
  0
POINT
  5
22B7
330
22B0
100
AcDbEntity
  8
Defpoints
 62
     0
100
AcDbPoint
 10
1633.351057675953
 20
1464.042469812657
 30
0.0
  0
POINT
  5
22B8
330
22B0
100
AcDbEntity
  8
Defpoints
 62
     0
100
AcDbPoint
 10
1633.351057675955
 20
1483.018809812656
 30
0.0
  0
POINT
  5
22B9
330
22B0
100
AcDbEntity
  8
Defpoints
 62
     0
100
AcDbPoint
 10
1623.582919437471
 20
1483.018809812656
 30
0.0
  0
ENDBLK
  5
22BB
330
22B0
100
AcDbEntity
  8
0
100
AcDbBlockEnd
  0
BLOCK
  5
22C7
330
22BD
100
AcDbEntity
  8
0
100
AcDbBlockBegin
  2
*D1
 70
     1
 10
0.0
 20
0.0
 30
0.0
  3
*D1
  1

  0
LINE
  5
22BE
330
22BD
100
AcDbEntity
  8
0
 62
     0
370
    -2
100
AcDbLine
 10
1624.257877268833
 20
1472.211470782281
 30
0.0
 11
1624.257877268833
 21
1462.574115911106
 31
0.0
  0
LINE
  5
22BF
330
22BD
100
AcDbEntity
  8
0
 62
     0
370
    -2
100
AcDbLine
 10
1655.043927675954
 20
1471.658989812657
 30
0.0
 11
1655.043927675954
 21
1462.574115911106
 31
0.0
  0
LINE
  5
22C0
330
22BD
100
AcDbEntity
  8
0
 62
     0
370
    -2
100
AcDbLine
 10
1624.457877268833
 20
1462.774115911106
 30
0.0
 11
1654.843927675955
 21
1462.774115911106
 31
0.0
  0
SOLID
  5
22C1
330
22BD
100
AcDbEntity
  8
0
 62
     0
100
AcDbTrace
 10
1624.457877268833
 20
1462.80744924444
 30
0.0
 11
1624.457877268833
 21
1462.740782577773
 31
0.0
 12
1624.257877268833
 22
1462.774115911106
 32
0.0
 13
1624.257877268833
 23
1462.774115911106
 33
0.0
  0
SOLID
  5
22C2
330
22BD
100
AcDbEntity
  8
0
 62
     0
100
AcDbTrace
 10
1654.843927675955
 20
1462.80744924444
 30
0.0
 11
1654.843927675955
 21
1462.740782577773
 31
0.0
 12
1655.043927675954
 22
1462.774115911106
 32
0.0
 13
1655.043927675954
 23
1462.774115911106
 33
0.0
  0
MTEXT
  5
22C3
330
22BD
100
AcDbEntity
  8
0
 62
     0
100
AcDbMText
 10
1639.650902472395
 20
1463.020965911106
 30
0.0
 40
0.3937
 41
0.0
 71
     5
 72
     1
  1
\A1;30.7861
  7
\U+C2A4\U+D0C0\U+C77C2
 73
     1
 44
1.0
  0
POINT
  5
22C4
330
22BD
100
AcDbEntity
  8
Defpoints
 62
     0
100
AcDbPoint
 10
1624.257877268833
 20
1472.31147078228
 30
0.0
  0
POINT
  5
22C5
330
22BD
100
AcDbEntity
  8
Defpoints
 62
     0
100
AcDbPoint
 10
1655.043927675954
 20
1471.758989812657
 30
0.0
  0
POINT
  5
22C6
330
22BD
100
AcDbEntity
  8
Defpoints
 62
     0
100
AcDbPoint
 10
1655.043927675954
 20
1462.774115911106
 30
0.0
  0
ENDBLK
  5
22C8
330
22BD
100
AcDbEntity
  8
0
100
AcDbBlockEnd
  0
BLOCK
  5
22D0
330
22CA
100
AcDbEntity
  8
0
100
AcDbBlockBegin
  2
*D2
 70
     1
 10
0.0
 20
0.0
 30
0.0
  3
*D2
  1

  0
LINE
  5
22CB
330
22CA
100
AcDbEntity
  8
0
 62
     0
370
    -2
100
AcDbLine
 10
1634.565755344063
 20
1477.764217856571
 30
0.0
 11
1634.978806229539
 21
1482.751519519834
 31
0.0
  0
MTEXT
  5
22CC
330
22CA
100
AcDbEntity
  8
0
 62
     0
100
AcDbMText
 10
1634.426775916337
 20
1479.076884514479
 30
0.0
 40
0.3937
 41
0.0
 71
     5
 72
     1
  1
\A1;R19.9212
  7
\U+C2A4\U+D0C0\U+C77C2
 11
0.0825379237988877
 21
0.996587924437663
 31
0.0
 73
     1
 44
1.0
  0
SOLID
  5
22CD
330
22CA
100
AcDbEntity
  8
0
 62
     0
100
AcDbTrace
 10
1634.945586632058
 20
1482.754270783961
 30
0.0
 11
1635.012025827021
 21
1482.748768255708
 31
0.0
 12
1634.9953138143
 22
1482.950837104722
 32
0.0
 13
1634.9953138143
 23
1482.950837104722
 33
0.0
  0
POINT
  5
22CE
330
22CA
100
AcDbEntity
  8
Defpoints
 62
     0
100
AcDbPoint
 10
1634.9953138143
 20
1482.950837104722
 30
0.0
  0
POINT
  5
22CF
330
22CA
100
AcDbEntity
  8
Defpoints
 62
     0
100
AcDbPoint
 10
1633.351057675959
 20
1463.097589812659
 30
0.0
  0
ENDBLK
  5
22D1
330
22CA
100
AcDbEntity
  8
0
100
AcDbBlockEnd
  0
BLOCK
  5
22D9
330
22D3
100
AcDbEntity
  8
0
100
AcDbBlockBegin
  2
*D3
 70
     1
 10
0.0
 20
0.0
 30
0.0
  3
*D3
  1

  0
LINE
  5
22D4
330
22D3
100
AcDbEntity
  8
0
 62
     0
370
    -2
100
AcDbLine
 10
1629.122673468218
 20
1478.068125514776
 30
0.0
 11
1626.463949898505
 21
1480.938101487051
 31
0.0
  0
MTEXT
  5
22D5
330
22D3
100
AcDbEntity
  8
0
 62
     0
100
AcDbMText
 10
1628.556299373643
 20
1479.042734150044
 30
0.0
 40
0.3937
 41
0.0
 71
     5
 72
     1
  1
\A1;R6.1417
  7
\U+C2A4\U+D0C0\U+C77C2
 11
0.6795922031693124
 21
-0.7335901017540245
 31
0.0
 73
     1
 44
1.0
  0
SOLID
  5
22D6
330
22D3
100
AcDbEntity
  8
0
 62
     0
100
AcDbTrace
 10
1626.488402901897
 20
1480.96075456049
 30
0.0
 11
1626.439496895114
 21
1480.915448413612
 31
0.0
 12
1626.328031457871
 22
1481.084819507402
 32
0.0
 13
1626.328031457871
 23
1481.084819507402
 33
0.0
  0
POINT
  5
22D7
330
22D3
100
AcDbEntity
  8
Defpoints
 62
     0
100
AcDbPoint
 10
1626.328031457871
 20
1481.084819507402
 30
0.0
  0
POINT
  5
22D8
330
22D3
100
AcDbEntity
  8
Defpoints
 62
     0
100
AcDbPoint
 10
1630.50189648392
 20
1476.579314507657
 30
0.0
  0
ENDBLK
  5
22DA
330
22D3
100
AcDbEntity
  8
0
100
AcDbBlockEnd
  0
BLOCK
  5
22E2
330
22DC
100
AcDbEntity
  8
0
100
AcDbBlockBegin
  2
*D4
 70
     1
 10
0.0
 20
0.0
 30
0.0
  3
*D4
  1

  0
LINE
  5
22DD
330
22DC
100
AcDbEntity
  8
0
 62
     0
370
    -2
100
AcDbLine
 10
1629.565608771602
 20
1474.422687640856
 30
0.0
 11
1624.48937727818
 21
1474.542307968815
 31
0.0
  0
MTEXT
  5
22DE
330
22DC
100
AcDbEntity
  8
0
 62
     0
100
AcDbMText
 10
1628.07827197453
 20
1474.704654948101
 30
0.0
 40
0.3937
 41
0.0
 71
     5
 72
     1
  1
\A1;R118.3462
  7
\U+C2A4\U+D0C0\U+C77C2
 11
0.9997224659220989
 21
-0.0235582497362996
 31
0.0
 73
     1
 44
1.0
  0
SOLID
  5
22DF
330
22DC
100
AcDbEntity
  8
0
 62
     0
100
AcDbTrace
 10
1624.490162553172
 20
1474.575632051013
 30
0.0
 11
1624.48859200319
 21
1474.508983886618
 31
0.0
 12
1624.289432784996
 22
1474.547019618763
 32
0.0
 13
1624.289432784996
 23
1474.547019618763
 33
0.0
  0
POINT
  5
22E0
330
22DC
100
AcDbEntity
  8
Defpoints
 62
     0
100
AcDbPoint
 10
1624.289432784996
 20
1474.547019618763
 30
0.0
  0
POINT
  5
22E1
330
22DC
100
AcDbEntity
  8
Defpoints
 62
     0
100
AcDbPoint
 10
1742.602807675957
 20
1471.758989812656
 30
0.0
  0
ENDBLK
  5
22E3
330
22DC
100
AcDbEntity
  8
0
100
AcDbBlockEnd
  0
BLOCK
  5
22EB
330
22E5
100
AcDbEntity
  8
0
100
AcDbBlockBegin
  2
*D5
 70
     1
 10
0.0
 20
0.0
 30
0.0
  3
*D5
  1

  0
LINE
  5
22E6
330
22E5
100
AcDbEntity
  8
0
 62
     0
370
    -2
100
AcDbLine
 10
1627.764640167615
 20
1467.560120896669
 30
0.0
 11
1625.750812597691
 21
1465.222757455003
 31
0.0
  0
MTEXT
  5
22E7
330
22E5
100
AcDbEntity
  8
0
 62
     0
100
AcDbMText
 10
1626.795470511489
 20
1466.813429515611
 30
0.0
 40
0.3937
 41
0.0
 71
     5
 72
     1
  1
\A1;R3.7402
  7
\U+C2A4\U+D0C0\U+C77C2
 11
0.6527274554463885
 21
0.757592812074193
 31
0.0
 73
     1
 44
1.0
  0
SOLID
  5
22E8
330
22E5
100
AcDbEntity
  8
0
 62
     0
100
AcDbTrace
 10
1625.725559503955
 20
1465.244515036851
 30
0.0
 11
1625.776065691426
 21
1465.200999873155
 31
0.0
 12
1625.620267106602
 22
1465.071238892589
 32
0.0
 13
1625.620267106602
 23
1465.071238892589
 33
0.0
  0
POINT
  5
22E9
330
22E5
100
AcDbEntity
  8
Defpoints
 62
     0
100
AcDbPoint
 10
1625.620267106602
 20
1465.071238892589
 30
0.0
  0
POINT
  5
22EA
330
22E5
100
AcDbEntity
  8
Defpoints
 62
     0
100
AcDbPoint
 10
1628.061565699091
 20
1467.904749648669
 30
0.0
  0
ENDBLK
  5
22EC
330
22E5
100
AcDbEntity
  8
0
100
AcDbBlockEnd
  0
BLOCK
  5
22F4
330
22EE
100
AcDbEntity
  8
0
100
AcDbBlockBegin
  2
*D6
 70
     1
 10
0.0
 20
0.0
 30
0.0
  3
*D6
  1

  0
LINE
  5
22EF
330
22EE
100
AcDbEntity
  8
0
 62
     0
370
    -2
100
AcDbLine
 10
1629.972490536027
 20
1467.479260733424
 30
0.0
 11
1629.878822916853
 21
1464.293504110334
 31
0.0
  0
MTEXT
  5
22F0
330
22EE
100
AcDbEntity
  8
0
 62
     0
100
AcDbMText
 10
1629.681852285513
 20
1465.993593974822
 30
0.0
 40
0.3937
 41
0.0
 71
     5
 72
     1
  1
\A1;R118.3462
  7
\U+C2A4\U+D0C0\U+C77C2
 11
0.0293893004710627
 21
0.9995680412147148
 31
0.0
 73
     1
 44
1.0
  0
SOLID
  5
22F1
330
22EE
100
AcDbEntity
  8
0
 62
     0
100
AcDbTrace
 10
1629.845503982146
 20
1464.294483753683
 30
0.0
 11
1629.91214185156
 21
1464.292524466985
 31
0.0
 12
1629.872945056759
 22
1464.093590502091
 32
0.0
 13
1629.872945056759
 23
1464.093590502091
 33
0.0
  0
POINT
  5
22F2
330
22EE
100
AcDbEntity
  8
Defpoints
 62
     0
100
AcDbPoint
 10
1629.872945056759
 20
1464.093590502091
 30
0.0
  0
POINT
  5
22F3
330
22EE
100
AcDbEntity
  8
Defpoints
 62
     0
100
AcDbPoint
 10
1633.351057675953
 20
1582.388689812657
 30
0.0
  0
ENDBLK
  5
22F5
330
22EE
100
AcDbEntity
  8
0
100
AcDbBlockEnd
  0
BLOCK
  5
22FD
330
22F7
100
AcDbEntity
  8
0
100
AcDbBlockBegin
  2
*D7
 70
     1
 10
0.0
 20
0.0
 30
0.0
  3
*D7
  1

  0
LINE
  5
22F8
330
22F7
100
AcDbEntity
  8
0
 62
     0
370
    -2
100
AcDbLine
 10
1651.257285764993
 20
1467.792490666222
 30
0.0
 11
1653.797060660531
 21
1465.369051720119
 31
0.0
  0
MTEXT
  5
22F9
330
22F7
100
AcDbEntity
  8
0
 62
     0
100
AcDbMText
 10
1652.247167310815
 20
1467.189148223354
 30
0.0
 40
0.3937
 41
0.0
 71
     5
 72
     1
  1
\A1;R3.7401
  7
\U+C2A4\U+D0C0\U+C77C2
 11
0.7234823907288268
 21
-0.6903428353400223
 31
0.0
 73
     1
 44
1.0
  0
SOLID
  5
22FA
330
22F7
100
AcDbEntity
  8
0
 62
     0
100
AcDbTrace
 10
1653.820072088375
 20
1465.39316779981
 30
0.0
 11
1653.774049232685
 21
1465.344935640428
 31
0.0
 12
1653.941757138677
 22
1465.230983153052
 32
0.0
 13
1653.941757138677
 23
1465.230983153052
 33
0.0
  0
POINT
  5
22FB
330
22F7
100
AcDbEntity
  8
Defpoints
 62
     0
100
AcDbPoint
 10
1653.941757138677
 20
1465.230983153052
 30
0.0
  0
POINT
  5
22FC
330
22F7
100
AcDbEntity
  8
Defpoints
 62
     0
100
AcDbPoint
 10
1651.235824474993
 20
1467.812968908648
 30
0.0
  0
ENDBLK
  5
22FE
330
22F7
100
AcDbEntity
  8
0
100
AcDbBlockEnd
  0
BLOCK
  5
2306
330
2300
100
AcDbEntity
  8
0
100
AcDbBlockBegin
  2
*D8
 70
     1
 10
0.0
 20
0.0
 30
0.0
  3
*D8
  1

  0
LINE
  5
2301
330
2300
100
AcDbEntity
  8
0
 62
     0
370
    -2
100
AcDbLine
 10
1651.119253322324
 20
1472.507262782823
 30
0.0
 11
1654.841401402256
 21
1472.531604201945
 31
0.0
  0
MTEXT
  5
2302
330
2300
100
AcDbEntity
  8
0
 62
     0
100
AcDbMText
 10
1652.611173782957
 20
1472.76387464814
 30
0.0
 40
0.3937
 41
0.0
 71
     5
 72
     1
  1
\A1;R118.3462
  7
\U+C2A4\U+D0C0\U+C77C2
 11
0.9999786173971575
 21
0.0065394761617227
 31
0.0
 73
     1
 44
1.0
  0
SOLID
  5
2303
330
2300
100
AcDbEntity
  8
0
 62
     0
100
AcDbTrace
 10
1654.841183419717
 20
1472.564936822525
 30
0.0
 11
1654.841619384795
 21
1472.498271581365
 31
0.0
 12
1655.041397125735
 22
1472.532912097177
 32
0.0
 13
1655.041397125735
 23
1472.532912097177
 33
0.0
  0
POINT
  5
2304
330
2300
100
AcDbEntity
  8
Defpoints
 62
     0
100
AcDbPoint
 10
1655.041397125735
 20
1472.532912097177
 30
0.0
  0
POINT
  5
2305
330
2300
100
AcDbEntity
  8
Defpoints
 62
     0
100
AcDbPoint
 10
1536.697707675956
 20
1471.758989812657
 30
0.0
  0
ENDBLK
  5
2307
330
2300
100
AcDbEntity
  8
0
100
AcDbBlockEnd
  0
BLOCK
  5
230F
330
2309
100
AcDbEntity
  8
0
100
AcDbBlockBegin
  2
*D9
 70
     1
 10
0.0
 20
0.0
 30
0.0
  3
*D9
  1

  0
LINE
  5
230A
330
2309
100
AcDbEntity
  8
0
 62
     0
370
    -2
100
AcDbLine
 10
1650.425062410877
 20
1467.950831782764
 30
0.0
 11
1650.486178220718
 21
1464.490939962083
 31
0.0
  0
MTEXT
  5
230B
330
2309
100
AcDbEntity
  8
0
 62
     0
100
AcDbMText
 10
1650.690140135273
 20
1466.92110279656
 30
0.0
 40
0.3937
 41
0.0
 71
     5
 72
     1
  1
\A1;R78.74
  7
\U+C2A4\U+D0C0\U+C77C2
 11
0.0176613260091862
 21
-0.9998440266179507
 31
0.0
 73
     1
 44
1.0
  0
SOLID
  5
230C
330
2309
100
AcDbEntity
  8
0
 62
     0
100
AcDbTrace
 10
1650.519506354939
 20
1464.49152867295
 30
0.0
 11
1650.452850086498
 21
1464.490351251216
 31
0.0
 12
1650.48971048592
 22
1464.290971156759
 32
0.0
 13
1650.48971048592
 23
1464.290971156759
 33
0.0
  0
POINT
  5
230D
330
2309
100
AcDbEntity
  8
Defpoints
 62
     0
100
AcDbPoint
 10
1650.48971048592
 20
1464.290971156759
 30
0.0
  0
POINT
  5
230E
330
2309
100
AcDbEntity
  8
Defpoints
 62
     0
100
AcDbPoint
 10
1649.099057675957
 20
1543.018689812655
 30
0.0
  0
ENDBLK
  5
2310
330
2309
100
AcDbEntity
  8
0
100
AcDbBlockEnd
  0
BLOCK
  5
23A0
330
239A
100
AcDbEntity
  8
0
100
AcDbBlockBegin
  2
*D10
 70
     1
 10
0.0
 20
0.0
 30
0.0
  3
*D10
  1

  0
LINE
  5
239B
330
239A
100
AcDbEntity
  8
0
 62
     0
370
    -2
100
AcDbLine
 10
1643.528217431693
 20
1482.463629855621
 30
0.0
 11
1641.706071342148
 21
1479.892171717431
 31
0.0
  0
MTEXT
  5
239C
330
239A
100
AcDbEntity
  8
0
 62
     0
100
AcDbMText
 10
1642.766778110363
 20
1481.816022245352
 30
0.0
 40
0.3937
 41
0.0
 71
     5
 72
     1
  1
\A1;R1.377
  7
\U+C2A4\U+D0C0\U+C77C2
 11
0.5781645092413759
 21
0.8159202168433376
 31
0.0
 73
     1
 44
1.0
  0
SOLID
  5
239D
330
239A
100
AcDbEntity
  8
0
 62
     0
100
AcDbTrace
 10
1641.678874001587
 20
1479.911443867739
 30
0.0
 11
1641.73326868271
 21
1479.872899567123
 31
0.0
 12
1641.5904384403
 22
1479.728987674062
 32
0.0
 13
1641.5904384403
 23
1479.728987674062
 33
0.0
  0
POINT
  5
239E
330
239A
100
AcDbEntity
  8
Defpoints
 62
     0
100
AcDbPoint
 10
1641.5904384403
 20
1479.728987674062
 30
0.0
  0
POINT
  5
239F
330
239A
100
AcDbEntity
  8
Defpoints
 62
     0
100
AcDbPoint
 10
1642.386570969526
 20
1480.852509812656
 30
0.0
  0
ENDBLK
  5
23A1
330
239A
100
AcDbEntity
  8
0
100
AcDbBlockEnd
  0
ENDSEC
  0
SECTION
  2
ENTITIES
  0
POINT
  5
37C
330
2
100
AcDbEntity
  8
0
 60
     1
100
AcDbPoint
 10
170.4737662487822
 20
-90.83440570086338
 30
0.0
1001
GENIUS_GENOBJ-N-TIT_13
1002
{
1000
OWNER
1000
GEN
1002
}
1001
GENIUS_GENOENT_13
1002
{
1000
MYREF
1005
37C
1002
}
1002
{
1000
GRP
1005
0
1002
}
1001
GENIUS_GENOLIS_13
1002
{
1000
ENT
1005
0
1005
0
1002
}
1001
GENIUS_GENTITLE_13
1002
{
1000
SCALE
1000
1:1
1002
}
1002
{
1000
BORDER
1000
GEN_A1
1002
}
1002
{
1000
TITLE
1000
GENTITLE
1002
}
1002
{
1000
UNCHG
1002
{
1000
GEN-TITLE-SCA
1000
GEN-TITLE-SIZ
1002
}
1002
}
1002
{
1000
HRA
1005
0
1002
}
1002
{
1000
HTIT
1005
0
1002
}
1002
{
1000
GENIUSID
1005
37C
1002
}
1001
GENIUS_GENODEF_13
1002
{
1000
HIER
1070
     1
1002
}
1002
{
1000
MANEDIT
1070
     0
1002
}
1002
{
1000
NOSEL
1070
     0
1002
}
1002
{
1000
BEHIND
1070
     0
1002
}
1002
{
1000
REACTOR
1002
}
  0
TEXT
  5
384
330
2
100
AcDbEntity
  8
0
 60
     1
100
AcDbText
 10
830.9999999999996
 20
-52.92726755347096
 30
0.0
 40
3.5
  1
!GENTITLE-INSERT
100
AcDbText
  0
TEXT
  5
385
330
2
100
AcDbEntity
  8
0
 60
     1
100
AcDbText
 10
10.0
 20
-47.92726755347096
 30
0.0
 40
3.5
  1
!GENTITLE-LL
100
AcDbText
  0
TEXT
  5
386
330
2
100
AcDbEntity
  8
0
 60
     1
100
AcDbText
 10
831.0
 20
526.072732446529
 30
0.0
 40
3.5
  1
!GENTITLE-RU
100
AcDbText
  0
TEXT
  5
387
330
2
100
AcDbEntity
  8
0
 60
     1
100
AcDbText
 10
841.0
 20
536.0727324465289
 30
0.0
 40
3.5
  1
!GENTITLE-MAX
100
AcDbText
  0
TEXT
  5
3FA
330
2
100
AcDbEntity
  8
0
 60
     1
100
AcDbText
 10
684.8812705983662
 20
141.8068575944205
 30
0.0
 40
3.5
  1
!GENTITLE-INSERT
100
AcDbText
  0
TEXT
  5
3FB
330
2
100
AcDbEntity
  8
0
 60
     1
100
AcDbText
 10
-136.1187294016335
 20
146.8068575944205
 30
0.0
 40
3.5
  1
!GENTITLE-LL
100
AcDbText
  0
TEXT
  5
3FC
330
2
100
AcDbEntity
  8
0
 60
     1
100
AcDbText
 10
684.8812705983664
 20
720.8068575944203
 30
0.0
 40
3.5
  1
!GENTITLE-RU
100
AcDbText
  0
TEXT
  5
3FD
330
2
100
AcDbEntity
  8
0
 60
     1
100
AcDbText
 10
694.8812705983664
 20
730.8068575944203
 30
0.0
 40
3.5
  1
!GENTITLE-MAX
100
AcDbText
  0
ARC
  5
182C
330
2
100
AcDbEntity
  8
\U+7C97\U+5B9E\U+7EBF
100
AcDbCircle
 10
1630.50189648392
 20
1476.579314507657
 30
0.0
 40
5.905499999999999
100
AcDbArc
 50
101.9330222309904
 51
177.5378056610677
  0
LWPOLYLINE
  5
182E
330
2
100
AcDbEntity
  8
\U+7C97\U+5B9E\U+7EBF
100
AcDbPolyline
 90
        2
 70
     0
 43
0.0
 10
1629.280827401072
 20
1482.357196519685
 42
-0.1045133233852687
 10
1637.421287950839
 20
1482.357196519685
  0
ARC
  5
1830
330
2
100
AcDbEntity
  8
\U+7C97\U+5B9E\U+7EBF
100
AcDbCircle
 10
1651.235824474993
 20
1475.705010716663
 30
0.0
 40
3.503929999999998
100
AcDbArc
 50
1.97315063132107
 51
88.37253349570223
  0
ARC
  5
1832
330
2
100
AcDbEntity
  8
\U+7C97\U+5B9E\U+7EBF
100
AcDbCircle
 10
1649.099057675956
 20
1400.499289812656
 30
0.0
 40
78.74000000000002
100
AcDbArc
 50
88.37253349570223
 51
90.0
  0
ARC
  5
1836
330
2
100
AcDbEntity
  8
\U+7C97\U+5B9E\U+7EBF
100
AcDbCircle
 10
1633.351057675953
 20
1582.388689812656
 30
0.0
 40
118.11
100
AcDbArc
 50
267.3546491409597
 51
270.0
  0
ARC
  5
1838
330
2
100
AcDbEntity
  8
\U+7C97\U+5B9E\U+7EBF
100
AcDbCircle
 10
1628.061565699089
 20
1467.904749648668
 30
0.0
 40
3.503929999999998
100
AcDbArc
 50
181.9272394785263
 51
267.3546491409597
  0
ARC
  5
183A
330
2
100
AcDbEntity
  8
\U+7C97\U+5B9E\U+7EBF
100
AcDbCircle
 10
1649.099057675956
 20
1543.018689812656
 30
0.0
 40
78.74000000000002
100
AcDbArc
 50
270.0
 51
271.6274665042978
  0
ARC
  5
183C
330
2
100
AcDbEntity
  8
\U+7C97\U+5B9E\U+7EBF
100
AcDbCircle
 10
1651.235824474993
 20
1467.812968908649
 30
0.0
 40
3.503929999999998
100
AcDbArc
 50
271.6274665042978
 51
358.0268493686789
  0
ARC
  5
183E
330
2
100
AcDbEntity
  8
\U+7C97\U+5B9E\U+7EBF
100
AcDbCircle
 10
1742.602807675956
 20
1471.758989812657
 30
0.0
 40
118.11
100
AcDbArc
 50
177.5378056610677
 51
181.9272394785263
  0
ARC
  5
1840
330
2
100
AcDbEntity
  8
\U+7C97\U+5B9E\U+7EBF
100
AcDbCircle
 10
1536.697707675955
 20
1471.758989812657
 30
0.0
 40
118.11
100
AcDbArc
 50
358.0268493686789
 51
1.97315063132107
  0
LINE
  5
1844
330
2
100
AcDbEntity
  8
\U+6807\U+6CE8\U+7EBF
 48
3.0
100
AcDbLine
 10
1633.351057675953
 20
1464.278689812657
 30
0.0
 11
1649.099057675956
 21
1464.278689812657
 31
0.0
  0
ARC
  5
2357
330
2
100
AcDbEntity
  8
\U+7C97\U+5B9E\U+7EBF
100
AcDbCircle
 10
1636.200218867991
 20
1476.579314507657
 30
0.0
 40
5.905499999999999
100
AcDbArc
 50
34.6346052276344
 51
78.06697776900958
  0
ARC
  5
2358
330
2
100
AcDbEntity
  8
0
100
AcDbCircle
 10
1642.386570969524
 20
1480.852509812656
 30
0.0
 40
1.613219999999999
100
AcDbArc
 50
214.6346052276336
 51
270.0000000000094
  0
LINE
  5
2359
330
2
100
AcDbEntity
  8
\U+6807\U+6CE8\U+7EBF
 48
3.0
100
AcDbLine
 10
1649.099057675956
 20
1479.239289812656
 30
0.0
 11
1642.386570969525
 21
1479.239289812656
 31
0.0
  0
MTEXT
  5
241C
330
2
100
AcDbEntity
  8
0
100
AcDbMText
 10
1633.344642876291
 20
1471.978117210114
 30
0.0
 40
0.3937
 41
14.93397349915023
 71
     1
 72
     5
  3
{\fTimes New Roman|b0|i0|c0|p18;\H1.27x;Model : ENT-3321DDR   \H0.58x;IMPORTANT ! \PThis template is provided as a guide for Undermount cutout only. \PBefore beginning to cut countertop, compare physical dimension of the template and the cutout line 
  1
with the actual sink unit for an accurate cut.\PHamatUSA is not responsible for any countertop, installation or labor charges due to failure to follow these instructions.\P\Lwww.Hamatusa.com }
  7
\U+C2A4\U+D0C0\U+C77C2
 73
     1
 44
1.0
  0
VIEWPORT
  5
74
330
C
100
AcDbEntity
 67
     1
  8
0
100
AcDbViewport
 10
490.633788896909
 20
297.0009369707932
 30
0.0
 40
1115.370256166983
 41
599.3755656108596
 68
     1
 69
     1
 12
490.633788896909
 22
297.0009369707932
 13
0.0
 23
0.0
 14
10.0
 24
10.0
 15
10.0
 25
10.0
 16
0.0
 26
0.0
 36
1.0
 17
0.0
 27
0.0
 37
0.0
 42
50.0
 43
0.0
 44
0.0
 45
599.3755656108596
 50
0.0
 51
0.0
 72
  1000
 90
    32800
  1

281
     0
 71
     1
 74
     0
110
0.0
120
0.0
130
0.0
111
1.0
121
0.0
131
0.0
112
0.0
122
1.0
132
0.0
 79
     0
146
0.0
170
     0
  0
ENDSEC
  0
SECTION
  2
OBJECTS
  0
DICTIONARY
  5
7
330
0
100
AcDbDictionary
281
     1
  3
ACAD_COLOR
350
5A3
  3
ACAD_GROUP
350
20
  3
ACAD_LAYOUT
350
B
  3
ACAD_MATERIAL
350
5A2
  3
ACAD_MLINESTYLE
350
21
  3
ACAD_PLOTSETTINGS
350
22
  3
ACAD_PLOTSTYLENAME
350
6
  3
ACAD_TABLESTYLE
350
5C3
  3
ACAD_VISUALSTYLE
350
2401
  3
AcDbVariableDictionary
350
81
  0
DICTIONARY
  5
23CD
330
10
100
AcDbDictionary
280
     1
281
     1
  3
ACAD_LAYERSTATES
360
23CE
  0
DICTIONARY
  5
95E
330
2
100
AcDbDictionary
280
     1
281
     1
  3
ACAD_SORTENTS
360
95F
  0
DICTIONARY
  5
5A3
102
{ACAD_REACTORS
330
7
102
}
330
7
100
AcDbDictionary
281
     1
  0
DICTIONARY
  5
20
102
{ACAD_REACTORS
330
7
102
}
330
7
100
AcDbDictionary
281
     1
  0
DICTIONARY
  5
B
102
{ACAD_REACTORS
330
7
102
}
330
7
100
AcDbDictionary
281
     1
  3
DIN A1 Title Block
350
F
  3
Model
350
A
  0
DICTIONARY
  5
5A2
102
{ACAD_REACTORS
330
7
102
}
330
7
100
AcDbDictionary
281
     1
  3
ByBlock
350
23FF
  3
ByLayer
350
23FE
  3
Global
350
2400
  0
DICTIONARY
  5
21
102
{ACAD_REACTORS
330
7
102
}
330
7
100
AcDbDictionary
281
     1
  3
Standard
350
23
  0
DICTIONARY
  5
22
102
{ACAD_REACTORS
330
7
102
}
330
7
100
AcDbDictionary
281
     1
  0
ACDBDICTIONARYWDFLT
  5
6
102
{ACAD_REACTORS
330
7
102
}
330
7
100
AcDbDictionary
281
     1
  3
Normal
350
5
100
AcDbDictionaryWithDefault
340
5
  0
DICTIONARY
  5
5C3
102
{ACAD_REACTORS
330
7
102
}
330
7
100
AcDbDictionary
281
     1
  3
Standard
350
5C4
  0
DICTIONARY
  5
2401
102
{ACAD_REACTORS
330
7
102
}
330
7
100
AcDbDictionary
281
     1
  3
2dWireframe
350
2407
  3
3D Hidden
350
2409
  3
3dWireframe
350
2408
  3
Basic
350
2406
  3
Brighten
350
240D
  3
ColorChange
350
2411
  3
Conceptual
350
240A
  3
Dim
350
240C
  3
Facepattern
350
2410
  3
Flat
350
2402
  3
FlatWithEdges
350
2403
  3
Gouraud
350
2404
  3
GouraudWithEdges
350
2405
  3
Linepattern
350
240F
  3
Realistic
350
240B
  3
Thicken
350
240E
  0
DICTIONARY
  5
81
102
{ACAD_REACTORS
330
7
102
}
330
7
100
AcDbDictionary
281
     1
  3
CTABLESTYLE
350
5EE
  3
DIMASSOC
350
82
  3
PROJECTNAME
350
23BD
  0
DICTIONARY
  5
23CE
102
{ACAD_REACTORS
330
23CD
102
}
330
23CD
100
AcDbDictionary
281
     1
  0
SORTENTSTABLE
  5
95F
102
{ACAD_REACTORS
330
95E
102
}
330
95E
100
AcDbSortentsTable
330
2
331
182E
  5
182E
331
384
  5
384
331
3FC
  5
3FC
331
1836
  5
1839
331
2358
  5
1838
331
182C
  5
182C
331
183E
  5
1841
331
387
  5
387
331
3FA
  5
3FA
331
3FD
  5
3FD
331
183C
  5
183F
331
1844
  5
20B2
331
385
  5
385
331
1832
  5
1832
331
2359
  5
20AF
331
3FB
  5
3FB
331
183A
  5
183D
331
2357
  5
1836
331
1830
  5
1830
331
386
  5
386
331
1838
  5
183B
331
1840
  5
1843
331
37C
  5
37C
  0
LAYOUT
  5
F
102
{ACAD_REACTORS
330
B
102
}
330
B
100
AcDbPlotSettings
  1

  2
none_device
  4
ISO_A1_(841.00_x_594.00_MM)
  6

 40
7.549999999999998
 41
20.05
 42
7.549999999999998
 43
20.05
 44
841.0
 45
594.0
 46
-7.57
 47
-20.06
 48
0.0
 49
0.0
140
0.0
141
0.0
142
1.0
143
1.0
 70
   688
 72
     1
 73
     0
 74
     5
  7

 75
    16
147
1.0
 76
     0
 77
     2
 78
   300
148
0.0128164049386896
149
0.0090630292066862
100
AcDbLayout
  1
DIN A1 Title Block
 70
     1
 71
     1
 10
0.0071835950613108
 20
0.0009369707933118
 11
841.0071835950612
 21
594.0009369707931
 12
0.0
 22
0.0
 32
0.0
 14
1.000000000000000E+20
 24
1.000000000000000E+20
 34
1.000000000000000E+20
 15
-1.000000000000000E+20
 25
-1.000000000000000E+20
 35
-1.000000000000000E+20
146
0.0
 13
0.0
 23
0.0
 33
0.0
 16
1.0
 26
0.0
 36
0.0
 17
0.0
 27
1.0
 37
0.0
 76
     0
330
C
331
74
  0
LAYOUT
  5
A
102
{ACAD_REACTORS
330
B
102
}
330
B
100
AcDbPlotSettings
  1

  2
none_device
  4
ISO_A4_(297.00_x_210.00_MM)
  6

 40
7.5
 41
20.0
 42
7.5
 43
20.0
 44
297.0
 45
210.0
 46
0.0
 47
0.0
 48
969.1120635225747
 49
1410.089773188028
140
997.7071895623687
141
1431.243016253039
142
1.0
143
20.0
 70
 11952
 72
     1
 73
     0
 74
     4
  7

 75
    22
147
0.05
 76
     0
 77
     2
 78
   300
148
-969.1120635225747
149
-1410.089773188028
100
AcDbLayout
  1
Model
 70
     1
 71
     0
 10
0.0
 20
0.0
 11
12.0
 21
9.0
 12
0.0
 22
0.0
 32
0.0
 14
0.0
 24
0.0
 34
0.0
 15
0.0
 25
0.0
 35
0.0
146
0.0
 13
0.0
 23
0.0
 33
0.0
 16
1.0
 26
0.0
 36
0.0
 17
0.0
 27
1.0
 37
0.0
 76
     0
330
2
331
23F8
1001
ACAD_PSEXT
1000
\U+C5C6\U+C74C
1000
\U+C5C6\U+C74C
1000
\U+C801\U+C6A9 \U+AC00\U+B2A5\U+D558\U+C9C0 \U+C54A\U+C74C
1000
\U+BC30\U+CE58\U+AC00 \U+C0C8\U+B85C\U+C6B4 \U+D50C\U+B85C\U+D130 \U+AD6C\U+C131\U+C744 \U+C120\U+D0DD\U+D560 \U+B54C\U+AE4C\U+C9C0 \U+D50C\U+B86F\U+B418\U+C9C0 \U+C54A\U+C2B5\U+B2C8\U+B2E4.
1070
     0
  0
MATERIAL
  5
23FF
102
{ACAD_XDICTIONARY
360
2421
102
}
102
{ACAD_REACTORS
330
5A2
102
}
330
5A2
100
AcDbMaterial
  1
ByBlock
  0
MATERIAL
  5
23FE
102
{ACAD_XDICTIONARY
360
241F
102
}
102
{ACAD_REACTORS
330
5A2
102
}
330
5A2
100
AcDbMaterial
  1
ByLayer
  0
MATERIAL
  5
2400
102
{ACAD_XDICTIONARY
360
2423
102
}
102
{ACAD_REACTORS
330
5A2
102
}
330
5A2
100
AcDbMaterial
  1
Global
  0
MLINESTYLE
  5
23
102
{ACAD_REACTORS
330
21
102
}
330
21
100
AcDbMlineStyle
  2
STANDARD
 70
     0
  3

 62
   256
 51
90.0
 52
90.0
 71
     2
 49
0.5
 62
   256
  6
BYLAYER
 49
-0.5
 62
   256
  6
BYLAYER
  0
ACDBPLACEHOLDER
  5
5
102
{ACAD_REACTORS
330
6
102
}
330
6
  0
TABLESTYLE
  5
5C4
102
{ACAD_XDICTIONARY
360
241D
102
}
102
{ACAD_REACTORS
330
5C3
102
}
330
5C3
100
AcDbTableStyle
  3
Standard
 70
     0
 71
     0
 40
1.5
 41
1.5
280
     0
281
     0
  7
Standard
140
4.5
170
     2
 62
     0
 63
     7
283
     0
274
    -2
284
     1
 64
     0
275
    -2
285
     1
 65
     0
276
    -2
286
     1
 66
     0
277
    -2
287
     1
 67
     0
278
    -2
288
     1
 68
     0
279
    -2
289
     1
 69
     0
  7
Standard
140
6.0
170
     5
 62
     0
 63
     7
283
     0
274
    -2
284
     1
 64
     0
275
    -2
285
     1
 65
     0
276
    -2
286
     1
 66
     0
277
    -2
287
     1
 67
     0
278
    -2
288
     1
 68
     0
279
    -2
289
     1
 69
     0
  7
Standard
140
4.5
170
     5
 62
     0
 63
     7
283
     0
274
    -2
284
     1
 64
     0
275
    -2
285
     1
 65
     0
276
    -2
286
     1
 66
     0
277
    -2
287
     1
 67
     0
278
    -2
288
     1
 68
     0
279
    -2
289
     1
 69
     0
  0
VISUALSTYLE
  5
2407
102
{ACAD_REACTORS
330
2401
102
}
330
2401
100
AcDbVisualStyle
  2
2dWireframe
 70
     4
 71
     0
 72
     2
 73
     0
 90
        0
 40
-0.6
 41
-30.0
 62
     5
 63
     7
421
 16777215
 74
     1
 91
        4
 64
     7
 65
   257
 75
     1
175
     1
 42
1.0
 92
        0
 66
   257
 43
1.0
 76
     1
 77
     6
 78
     2
 67
     7
 79
     5
170
     0
171
     0
290
     0
174
     0
 93
        1
 44
0.0
173
     0
291
     0
 45
0.0
1001
ACAD
1000
AcDbSavedByObjectVersion
1070
     0
  0
VISUALSTYLE
  5
2409
102
{ACAD_REACTORS
330
2401
102
}
330
2401
100
AcDbVisualStyle
  2
3D Hidden
 70
     6
 71
     1
 72
     2
 73
     2
 90
        0
 40
-0.6
 41
-30.0
 62
     5
 63
     7
421
 16777215
 74
     2
 91
        2
 64
     7
 65
   257
 75
     2
175
     1
 42
40.0
 92
        0
 66
   257
 43
1.0
 76
     1
 77
     6
 78
     2
 67
     7
 79
     3
170
     0
171
     0
290
     0
174
     0
 93
        1
 44
0.0
173
     0
291
     0
 45
0.0
1001
ACAD
1000
AcDbSavedByObjectVersion
1070
     0
  0
VISUALSTYLE
  5
2408
102
{ACAD_REACTORS
330
2401
102
}
330
2401
100
AcDbVisualStyle
  2
3dWireframe
 70
     5
 71
     0
 72
     2
 73
     0
 90
        0
 40
-0.6
 41
-30.0
 62
     5
 63
     7
421
 16777215
 74
     1
 91
        4
 64
     7
 65
   257
 75
     1
175
     1
 42
1.0
 92
        0
 66
   257
 43
1.0
 76
     1
 77
     6
 78
     2
 67
     7
 79
     5
170
     0
171
     0
290
     0
174
     0
 93
        1
 44
0.0
173
     0
291
     0
 45
0.0
1001
ACAD
1000
AcDbSavedByObjectVersion
1070
     0
  0
VISUALSTYLE
  5
2406
102
{ACAD_REACTORS
330
2401
102
}
330
2401
100
AcDbVisualStyle
  2
Basic
 70
     7
 71
     1
 72
     0
 73
     1
 90
        0
 40
-0.6
 41
-30.0
 62
     5
 63
     7
421
 16777215
 74
     0
 91
        4
 64
     7
 65
   257
 75
     1
175
     1
 42
1.0
 92
        8
 66
     7
 43
1.0
 76
     1
 77
     6
 78
     2
 67
     7
 79
     5
170
     0
171
     0
290
     0
174
     0
 93
        1
 44
0.0
173
     0
291
     1
 45
0.0
1001
ACAD
1000
AcDbSavedByObjectVersion
1070
     0
  0
VISUALSTYLE
  5
240D
102
{ACAD_REACTORS
330
2401
102
}
330
2401
100
AcDbVisualStyle
  2
Brighten
 70
    12
 71
     2
 72
     2
 73
     0
 90
        0
 40
-0.6
 41
-30.0
 62
     5
 63
     7
421
 16777215
 74
     1
 91
        4
 64
     7
 65
   257
 75
     1
175
     1
 42
1.0
 92
        8
 66
     7
 43
1.0
 76
     1
 77
     6
 78
     2
 67
     7
 79
     5
170
     0
171
     0
290
     0
174
     0
 93
        1
 44
50.0
173
     0
291
     1
 45
0.0
1001
ACAD
1000
AcDbSavedByObjectVersion
1070
     0
  0
VISUALSTYLE
  5
2411
102
{ACAD_REACTORS
330
2401
102
}
330
2401
100
AcDbVisualStyle
  2
ColorChange
 70
    16
 71
     2
 72
     2
 73
     3
 90
        0
 40
-0.6
 41
-30.0
 62
     5
 63
     8
421
  8421504
 74
     1
 91
        4
 64
     7
 65
   257
 75
     1
175
     1
 42
1.0
 92
        8
 66
     8
424
  8421504
 43
1.0
 76
     1
 77
     6
 78
     2
 67
     7
 79
     5
170
     0
171
     0
290
     0
174
     0
 93
        1
 44
0.0
173
     0
291
     1
 45
0.0
1001
ACAD
1000
AcDbSavedByObjectVersion
1070
     0
  0
VISUALSTYLE
  5
240A
102
{ACAD_REACTORS
330
2401
102
}
330
2401
100
AcDbVisualStyle
  2
Conceptual
 70
     9
 71
     3
 72
     2
 73
     0
 90
        0
 40
-0.6
 41
-30.0
 62
     5
 63
     7
421
 16777215
 74
     2
 91
        2
 64
     7
 65
   257
 75
     1
175
     1
 42
40.0
 92
        8
 66
     7
 43
1.0
 76
     1
 77
     6
 78
     2
 67
     7
 79
     3
170
     0
171
     0
290
     0
174
     0
 93
        1
 44
0.0
173
     0
291
     0
 45
0.0
1001
ACAD
1000
AcDbSavedByObjectVersion
1070
     0
  0
VISUALSTYLE
  5
240C
102
{ACAD_REACTORS
330
2401
102
}
330
2401
100
AcDbVisualStyle
  2
Dim
 70
    11
 71
     2
 72
     2
 73
     0
 90
        0
 40
-0.6
 41
-30.0
 62
     5
 63
     7
421
 16777215
 74
     1
 91
        4
 64
     7
 65
   257
 75
     1
175
     1
 42
1.0
 92
        8
 66
     7
 43
1.0
 76
     1
 77
     6
 78
     2
 67
     7
 79
     5
170
     0
171
     0
290
     0
174
     0
 93
        1
 44
-50.0
173
     0
291
     1
 45
0.0
1001
ACAD
1000
AcDbSavedByObjectVersion
1070
     0
  0
VISUALSTYLE
  5
2410
102
{ACAD_REACTORS
330
2401
102
}
330
2401
100
AcDbVisualStyle
  2
Facepattern
 70
    15
 71
     2
 72
     2
 73
     0
 90
        0
 40
-0.6
 41
-30.0
 62
     5
 63
     7
421
 16777215
 74
     1
 91
        4
 64
     7
 65
   257
 75
     1
175
     1
 42
1.0
 92
        8
 66
     7
 43
1.0
 76
     1
 77
     6
 78
     2
 67
     7
 79
     5
170
     0
171
     0
290
     0
174
     0
 93
        1
 44
0.0
173
     0
291
     1
 45
0.0
1001
ACAD
1000
AcDbSavedByObjectVersion
1070
     0
  0
VISUALSTYLE
  5
2402
102
{ACAD_REACTORS
330
2401
102
}
330
2401
100
AcDbVisualStyle
  2
Flat
 70
     0
 71
     2
 72
     1
 73
     1
 90
        2
 40
-0.6
 41
30.0
 62
     5
 63
     7
421
 16777215
 74
     0
 91
        4
 64
     7
 65
   257
 75
     1
175
     1
 42
1.0
 92
        8
 66
     7
 43
1.0
 76
     1
 77
     6
 78
     2
 67
     7
 79
     5
170
     0
171
     0
290
     0
174
     0
 93
       13
 44
0.0
173
     0
291
     1
 45
0.0
1001
ACAD
1000
AcDbSavedByObjectVersion
1070
     0
  0
VISUALSTYLE
  5
2403
102
{ACAD_REACTORS
330
2401
102
}
330
2401
100
AcDbVisualStyle
  2
FlatWithEdges
 70
     1
 71
     2
 72
     1
 73
     1
 90
        2
 40
-0.6
 41
30.0
 62
     5
 63
     7
421
 16777215
 74
     1
 91
        4
 64
     7
 65
   257
 75
     1
175
     1
 42
1.0
 92
        0
 66
   257
 43
1.0
 76
     1
 77
     6
 78
     2
 67
     7
 79
     5
170
     0
171
     0
290
     0
174
     0
 93
       13
 44
0.0
173
     0
291
     1
 45
0.0
1001
ACAD
1000
AcDbSavedByObjectVersion
1070
     0
  0
VISUALSTYLE
  5
2404
102
{ACAD_REACTORS
330
2401
102
}
330
2401
100
AcDbVisualStyle
  2
Gouraud
 70
     2
 71
     2
 72
     2
 73
     1
 90
        2
 40
-0.6
 41
30.0
 62
     5
 63
     7
421
 16777215
 74
     0
 91
        4
 64
     7
 65
   257
 75
     1
175
     1
 42
1.0
 92
        0
 66
     7
 43
1.0
 76
     1
 77
     6
 78
     2
 67
     7
 79
     5
170
     0
171
     0
290
     0
174
     0
 93
       13
 44
0.0
173
     0
291
     1
 45
0.0
1001
ACAD
1000
AcDbSavedByObjectVersion
1070
     0
  0
VISUALSTYLE
  5
2405
102
{ACAD_REACTORS
330
2401
102
}
330
2401
100
AcDbVisualStyle
  2
GouraudWithEdges
 70
     3
 71
     2
 72
     2
 73
     1
 90
        2
 40
-0.6
 41
30.0
 62
     5
 63
     7
421
 16777215
 74
     1
 91
        4
 64
     7
 65
   257
 75
     1
175
     1
 42
1.0
 92
        0
 66
   257
 43
1.0
 76
     1
 77
     6
 78
     2
 67
     7
 79
     5
170
     0
171
     0
290
     0
174
     0
 93
       13
 44
0.0
173
     0
291
     1
 45
0.0
1001
ACAD
1000
AcDbSavedByObjectVersion
1070
     0
  0
VISUALSTYLE
  5
240F
102
{ACAD_REACTORS
330
2401
102
}
330
2401
100
AcDbVisualStyle
  2
Linepattern
 70
    14
 71
     2
 72
     2
 73
     0
 90
        0
 40
-0.6
 41
-30.0
 62
     5
 63
     7
421
 16777215
 74
     1
 91
        4
 64
     7
 65
   257
 75
     7
175
     7
 42
1.0
 92
        8
 66
     7
 43
1.0
 76
     1
 77
     6
 78
     2
 67
     7
 79
     5
170
     0
171
     0
290
     0
174
     0
 93
        1
 44
0.0
173
     0
291
     1
 45
0.0
1001
ACAD
1000
AcDbSavedByObjectVersion
1070
     0
  0
VISUALSTYLE
  5
240B
102
{ACAD_REACTORS
330
2401
102
}
330
2401
100
AcDbVisualStyle
  2
Realistic
 70
     8
 71
     2
 72
     2
 73
     0
 90
        0
 40
-0.6
 41
-30.0
 62
     5
 63
     7
421
 16777215
 74
     1
 91
        0
 64
     7
 65
   257
 75
     1
175
     1
 42
1.0
 92
        8
 66
     8
424
  7895160
 43
1.0
 76
     1
 77
     6
 78
     2
 67
     7
 79
     5
170
     0
171
     0
290
     0
174
     0
 93
       13
 44
0.0
173
     0
291
     0
 45
0.0
1001
ACAD
1000
AcDbSavedByObjectVersion
1070
     0
  0
VISUALSTYLE
  5
240E
102
{ACAD_REACTORS
330
2401
102
}
330
2401
100
AcDbVisualStyle
  2
Thicken
 70
    13
 71
     2
 72
     2
 73
     0
 90
        0
 40
-0.6
 41
-30.0
 62
     5
 63
     7
421
 16777215
 74
     1
 91
        4
 64
     7
 65
   257
 75
     1
175
     1
 42
1.0
 92
       12
 66
     7
 43
1.0
 76
     1
 77
     6
 78
     2
 67
     7
 79
     5
170
     0
171
     0
290
     0
174
     0
 93
        1
 44
0.0
173
     0
291
     1
 45
0.0
1001
ACAD
1000
AcDbSavedByObjectVersion
1070
     0
  0
DICTIONARYVAR
  5
5EE
102
{ACAD_REACTORS
330
81
102
}
330
81
100
DictionaryVariables
280
     0
  1
STANDARD
  0
DICTIONARYVAR
  5
82
102
{ACAD_REACTORS
330
81
102
}
330
81
100
DictionaryVariables
280
     0
  1
1
  0
DICTIONARYVAR
  5
23BD
102
{ACAD_REACTORS
330
81
102
}
330
81
100
DictionaryVariables
280
     0
  1

  0
DICTIONARY
  5
2421
330
23FF
100
AcDbDictionary
280
     1
281
     1
  3
ACAD_XREC_ROUNDTRIP
360
2422
  0
DICTIONARY
  5
241F
330
23FE
100
AcDbDictionary
280
     1
281
     1
  3
ACAD_XREC_ROUNDTRIP
360
2420
  0
DICTIONARY
  5
2423
330
2400
100
AcDbDictionary
280
     1
281
     1
  3
ACAD_XREC_ROUNDTRIP
360
2424
  0
DICTIONARY
  5
241D
330
5C4
100
AcDbDictionary
280
     1
281
     1
  3
ACAD_XREC_ROUNDTRIP
360
241E
  0
XRECORD
  5
2422
102
{ACAD_REACTORS
330
2421
102
}
330
2421
100
AcDbXrecord
280
     1
102
MATERIAL
148
0.0
149
0.0
149
0.0
 93
        0
 94
       63
282
     0
 72
     1
 77
     1
171
     1
175
     1
179
     1
273
     0
  0
XRECORD
  5
2420
102
{ACAD_REACTORS
330
241F
102
}
330
241F
100
AcDbXrecord
280
     1
102
MATERIAL
148
0.0
149
0.0
149
0.0
 93
        0
 94
       63
282
     0
 72
     1
 77
     1
171
     1
175
     1
179
     1
273
     0
  0
XRECORD
  5
2424
102
{ACAD_REACTORS
330
2423
102
}
330
2423
100
AcDbXrecord
280
     1
102
MATERIAL
148
0.0
149
0.0
149
0.0
 93
        0
 94
       63
282
     0
 72
     1
 77
     1
171
     1
175
     1
179
     1
273
     0
  0
XRECORD
  5
241E
102
{ACAD_REACTORS
330
241D
102
}
330
241D
100
AcDbXrecord
280
     1
102
ACAD_ROUNDTRIP_PRE2007_TABLESTYLE
 90
        4
 91
        0
  1

 92
        4
 93
        0
  2

 94
        4
 95
        0
  3

  0
ENDSEC
  0
EOF
