  0
SECTION
  2
HEADER
  9
$ACADVER
  1
AC1018
  9
$ACADMAINTVER
 70
   104
  9
$DWGCODEPAGE
  3
ANSI_1252
  9
$LASTSAVEDBY
  1
user
  9
$INSBASE
 10
0.0
 20
0.0
 30
0.0
  9
$EXTMIN
 10
1211.619551660039
 20
1302.79749539987
 30
0.0
  9
$EXTMAX
 10
1922.436714220447
 20
2865.103595995832
 30
0.0
  9
$LIMMIN
 10
0.0
 20
0.0
  9
$LIMMAX
 10
420.0
 20
297.0
  9
$ORTHOMODE
 70
     0
  9
$REGENMODE
 70
     1
  9
$FILLMODE
 70
     1
  9
$QTEXTMODE
 70
     0
  9
$MIRRTEXT
 70
     0
  9
$LTSCALE
 40
1.0
  9
$ATTMODE
 70
     1
  9
$TEXTSIZE
 40
0.3937
  9
$TRACEWID
 40
1.0
  9
$TEXTSTYLE
  7
\U+C2A4\U+D0C0\U+C77C2
  9
$CLAYER
  8
0
  9
$CELTYPE
  6
ByLayer
  9
$CECOLOR
 62
   256
  9
$CELTSCALE
 40
1.0
  9
$DISPSILH
 70
     0
  9
$DIMSCALE
 40
1.0
  9
$DIMASZ
 40
0.2
  9
$DIMEXO
 40
0.1
  9
$DIMDLI
 40
0.039
  9
$DIMRND
 40
0.0
  9
$DIMDLE
 40
0.0
  9
$DIMEXE
 40
0.2
  9
$DIMTP
 40
0.0
  9
$DIMTM
 40
0.0
  9
$DIMTXT
 40
2.5
  9
$DIMCEN
 40
0.039
  9
$DIMTSZ
 40
0.0
  9
$DIMTOL
 70
     0
  9
$DIMLIM
 70
     0
  9
$DIMTIH
 70
     0
  9
$DIMTOH
 70
     0
  9
$DIMSE1
 70
     0
  9
$DIMSE2
 70
     0
  9
$DIMTAD
 70
     1
  9
$DIMZIN
 70
     8
  9
$DIMBLK
  1

  9
$DIMASO
 70
     1
  9
$DIMSHO
 70
     1
  9
$DIMPOST
  1

  9
$DIMAPOST
  1

  9
$DIMALT
 70
     0
  9
$DIMALTD
 70
     2
  9
$DIMALTF
 40
0.0394
  9
$DIMLFAC
 40
1.0
  9
$DIMTOFL
 70
     1
  9
$DIMTVP
 40
1.0
  9
$DIMTIX
 70
     0
  9
$DIMSOXD
 70
     0
  9
$DIMSAH
 70
     0
  9
$DIMBLK1
  1

  9
$DIMBLK2
  1

  9
$DIMSTYLE
  2
DIN
  9
$DIMCLRD
 70
     0
  9
$DIMCLRE
 70
     0
  9
$DIMCLRT
 70
     0
  9
$DIMTFAC
 40
1.0
  9
$DIMGAP
 40
0.05
  9
$DIMJUST
 70
     0
  9
$DIMSD1
 70
     0
  9
$DIMSD2
 70
     0
  9
$DIMTOLJ
 70
     1
  9
$DIMTZIN
 70
     0
  9
$DIMALTZ
 70
     0
  9
$DIMALTTZ
 70
     0
  9
$DIMUPT
 70
     0
  9
$DIMDEC
 70
     4
  9
$DIMTDEC
 70
     4
  9
$DIMALTU
 70
     8
  9
$DIMALTTD
 70
     2
  9
$DIMTXSTY
  7
\U+C2A4\U+D0C0\U+C77C2
  9
$DIMAUNIT
 70
     0
  9
$DIMADEC
 70
     0
  9
$DIMALTRND
 40
0.0
  9
$DIMAZIN
 70
     0
  9
$DIMDSEP
 70
    46
  9
$DIMATFIT
 70
     3
  9
$DIMFRAC
 70
     0
  9
$DIMLDRBLK
  1

  9
$DIMLUNIT
 70
     6
  9
$DIMLWD
 70
    -2
  9
$DIMLWE
 70
    -2
  9
$DIMTMOVE
 70
     0
  9
$LUNITS
 70
     3
  9
$LUPREC
 70
     4
  9
$SKETCHINC
 40
1.0
  9
$FILLETRAD
 40
0.59
  9
$AUNITS
 70
     0
  9
$AUPREC
 70
     0
  9
$MENU
  1
.
  9
$ELEVATION
 40
0.0
  9
$PELEVATION
 40
0.0
  9
$THICKNESS
 40
0.0
  9
$LIMCHECK
 70
     0
  9
$CHAMFERA
 40
0.0
  9
$CHAMFERB
 40
0.0
  9
$CHAMFERC
 40
0.0
  9
$CHAMFERD
 40
0.0
  9
$SKPOLY
 70
     0
  9
$TDCREATE
 40
2454393.137688252
  9
$TDUCREATE
 40
2454393.346021586
  9
$TDUPDATE
 40
2458464.614670428
  9
$TDUUPDATE
 40
2458464.823003762
  9
$TDINDWG
 40
0.8643486111
  9
$TDUSRTIMER
 40
0.8643482523
  9
$USRTIMER
 70
     1
  9
$ANGBASE
 50
0.0
  9
$ANGDIR
 70
     0
  9
$PDMODE
 70
     0
  9
$PDSIZE
 40
0.0
  9
$PLINEWID
 40
0.0
  9
$SPLFRAME
 70
     0
  9
$SPLINETYPE
 70
     6
  9
$SPLINESEGS
 70
     8
  9
$HANDSEED
  5
201B
  9
$SURFTAB1
 70
     6
  9
$SURFTAB2
 70
     6
  9
$SURFTYPE
 70
     6
  9
$SURFU
 70
     6
  9
$SURFV
 70
     6
  9
$UCSBASE
  2

  9
$UCSNAME
  2

  9
$UCSORG
 10
0.0
 20
0.0
 30
0.0
  9
$UCSXDIR
 10
1.0
 20
0.0
 30
0.0
  9
$UCSYDIR
 10
0.0
 20
1.0
 30
0.0
  9
$UCSORTHOREF
  2

  9
$UCSORTHOVIEW
 70
     0
  9
$UCSORGTOP
 10
0.0
 20
0.0
 30
0.0
  9
$UCSORGBOTTOM
 10
0.0
 20
0.0
 30
0.0
  9
$UCSORGLEFT
 10
0.0
 20
0.0
 30
0.0
  9
$UCSORGRIGHT
 10
0.0
 20
0.0
 30
0.0
  9
$UCSORGFRONT
 10
0.0
 20
0.0
 30
0.0
  9
$UCSORGBACK
 10
0.0
 20
0.0
 30
0.0
  9
$PUCSBASE
  2

  9
$PUCSNAME
  2

  9
$PUCSORG
 10
0.0
 20
0.0
 30
0.0
  9
$PUCSXDIR
 10
1.0
 20
0.0
 30
0.0
  9
$PUCSYDIR
 10
0.0
 20
1.0
 30
0.0
  9
$PUCSORTHOREF
  2

  9
$PUCSORTHOVIEW
 70
     0
  9
$PUCSORGTOP
 10
0.0
 20
0.0
 30
0.0
  9
$PUCSORGBOTTOM
 10
0.0
 20
0.0
 30
0.0
  9
$PUCSORGLEFT
 10
0.0
 20
0.0
 30
0.0
  9
$PUCSORGRIGHT
 10
0.0
 20
0.0
 30
0.0
  9
$PUCSORGFRONT
 10
0.0
 20
0.0
 30
0.0
  9
$PUCSORGBACK
 10
0.0
 20
0.0
 30
0.0
  9
$USERI1
 70
     0
  9
$USERI2
 70
     0
  9
$USERI3
 70
     0
  9
$USERI4
 70
     0
  9
$USERI5
 70
     0
  9
$USERR1
 40
0.0
  9
$USERR2
 40
0.0
  9
$USERR3
 40
0.0
  9
$USERR4
 40
0.0
  9
$USERR5
 40
0.0
  9
$WORLDVIEW
 70
     1
  9
$SHADEDGE
 70
     3
  9
$SHADEDIF
 70
    70
  9
$TILEMODE
 70
     1
  9
$MAXACTVP
 70
    64
  9
$PINSBASE
 10
0.0
 20
0.0
 30
0.0
  9
$PLIMCHECK
 70
     0
  9
$PEXTMIN
 10
1.000000000000000E+20
 20
1.000000000000000E+20
 30
1.000000000000000E+20
  9
$PEXTMAX
 10
-1.000000000000000E+20
 20
-1.000000000000000E+20
 30
-1.000000000000000E+20
  9
$PLIMMIN
 10
0.0071835950613108
 20
0.0009369707933118
  9
$PLIMMAX
 10
841.0071835950612
 20
594.0009369707931
  9
$UNITMODE
 70
     0
  9
$VISRETAIN
 70
     1
  9
$PLINEGEN
 70
     0
  9
$PSLTSCALE
 70
     1
  9
$TREEDEPTH
 70
  3020
  9
$CMLSTYLE
  2
Standard
  9
$CMLJUST
 70
     0
  9
$CMLSCALE
 40
20.0
  9
$PROXYGRAPHICS
 70
     1
  9
$MEASUREMENT
 70
     1
  9
$CELWEIGHT
370
    -1
  9
$ENDCAPS
280
     0
  9
$JOINSTYLE
280
     0
  9
$LWDISPLAY
290
     0
  9
$INSUNITS
 70
     1
  9
$HYPERLINKBASE
  1

  9
$STYLESHEET
  1

  9
$XEDIT
290
     1
  9
$CEPSNTYPE
380
     0
  9
$PSTYLEMODE
290
     1
  9
$FINGERPRINTGUID
  2
{AC2FA5CB-6F18-4BC2-9C5F-F25C10372E5B}
  9
$VERSIONGUID
  2
{8251C1D4-1862-41D5-9979-649A89F71383}
  9
$EXTNAMES
290
     1
  9
$PSVPSCALE
 40
0.0
  9
$OLESTARTUP
290
     0
  9
$SORTENTS
280
   127
  9
$INDEXCTL
280
     0
  9
$HIDETEXT
280
     0
  9
$XCLIPFRAME
290
     0
  9
$HALOGAP
280
     0
  9
$OBSCOLOR
 70
   257
  9
$OBSLTYPE
280
     0
  9
$INTERSECTIONDISPLAY
280
     0
  9
$INTERSECTIONCOLOR
 70
   257
  9
$DIMASSOC
280
     1
  9
$PROJECTNAME
  1

  0
ENDSEC
  0
SECTION
  2
CLASSES
  0
CLASS
  1
ACDBDICTIONARYWDFLT
  2
AcDbDictionaryWithDefault
  3
ObjectDBX Classes
 90
        0
 91
        1
280
     0
281
     0
  0
CLASS
  1
PLOTSETTINGS
  2
AcDbPlotSettings
  3
ObjectDBX Classes
 90
        0
 91
        0
280
     0
281
     0
  0
CLASS
  1
DICTIONARYVAR
  2
AcDbDictionaryVar
  3
ObjectDBX Classes
 90
        0
 91
        3
280
     0
281
     0
  0
CLASS
  1
TABLESTYLE
  2
AcDbTableStyle
  3
ObjectDBX Classes
 90
     4095
 91
        1
280
     0
281
     0
  0
CLASS
  1
DIMASSOC
  2
AcDbDimAssoc
  3
"AcDbDimAssoc|Product Desc:     AcDim ARX App For Dimension|Company:          Autodesk, Inc.|WEB Address:      www.autodesk.com"
 90
        0
 91
        0
280
     0
281
     0
  0
CLASS
  1
SORTENTSTABLE
  2
AcDbSortentsTable
  3
ObjectDBX Classes
 90
        0
 91
        2
280
     0
281
     0
  0
CLASS
  1
MATERIAL
  2
AcDbMaterial
  3
ObjectDBX Classes
 90
     1024
 91
        3
280
     0
281
     0
  0
CLASS
  1
VISUALSTYLE
  2
AcDbVisualStyle
  3
ObjectDBX Classes
 90
     4095
 91
       16
280
     0
281
     0
  0
ENDSEC
  0
SECTION
  2
TABLES
  0
TABLE
  2
VPORT
  5
19
330
0
100
AcDbSymbolTable
 70
     1
  0
VPORT
  5
1FE7
330
19
100
AcDbSymbolTableRecord
100
AcDbViewportTableRecord
  2
*Active
 70
     0
 10
0.0
 20
0.0
 11
1.0
 21
1.0
 12
1231.871448565268
 22
1308.820040964503
 13
0.0
 23
0.0
 14
10.0
 24
10.0
 15
10.0
 25
10.0
 16
0.0
 26
0.0
 36
1.0
 17
0.0
 27
0.0
 37
0.0
 40
10.6581620284237
 41
2.738095238095238
 42
50.0
 43
0.0
 44
0.0
 50
0.0
 51
0.0
 71
     0
 72
  1000
 73
     1
 74
     3
 75
     0
 76
     0
 77
     0
 78
     0
281
     0
 65
     1
110
0.0
120
0.0
130
0.0
111
1.0
121
0.0
131
0.0
112
0.0
122
1.0
132
0.0
 79
     0
146
0.0
  0
ENDTAB
  0
TABLE
  2
LTYPE
  5
14
330
0
100
AcDbSymbolTable
 70
     3
  0
LTYPE
  5
15
330
14
100
AcDbSymbolTableRecord
100
AcDbLinetypeTableRecord
  2
ByBlock
 70
     0
  3

 72
    65
 73
     0
 40
0.0
  0
LTYPE
  5
16
330
14
100
AcDbSymbolTableRecord
100
AcDbLinetypeTableRecord
  2
ByLayer
 70
     0
  3

 72
    65
 73
     0
 40
0.0
  0
LTYPE
  5
8
330
14
100
AcDbSymbolTableRecord
100
AcDbLinetypeTableRecord
  2
Continuous
 70
     0
  3
Solid line
 72
    65
 73
     0
 40
0.0
  0
LTYPE
  5
1811
330
14
100
AcDbSymbolTableRecord
100
AcDbLinetypeTableRecord
  2
ACAD_ISO04W100
 70
     0
  3
ISO long-dash dot ____ . ____ . ____ . ____ . _
 72
    65
 73
     4
 40
30.0
 49
24.0
 74
     0
 49
-3.0
 74
     0
 49
0.0
 74
     0
 49
-3.0
 74
     0
  0
LTYPE
  5
1CC4
330
14
100
AcDbSymbolTableRecord
100
AcDbLinetypeTableRecord
  2
ACAD_ISO08W100
 70
     0
  3
ISO long-dash short-dash ____ __ ____ __ ____ _
 72
    65
 73
     4
 40
36.0
 49
24.0
 74
     0
 49
-3.0
 74
     0
 49
6.0
 74
     0
 49
-3.0
 74
     0
  0
ENDTAB
  0
TABLE
  2
LAYER
  5
10
102
{ACAD_XDICTIONARY
360
1FDC
102
}
330
0
100
AcDbSymbolTable
 70
     9
  0
LAYER
  5
4
330
10
100
AcDbSymbolTableRecord
100
AcDbLayerTableRecord
  2
0
 70
     0
 62
     7
  6
Continuous
370
    -3
390
5
  0
LAYER
  5
8E
330
10
100
AcDbSymbolTableRecord
100
AcDbLayerTableRecord
  2
07
 70
     0
 62
     7
  6
Continuous
370
    -3
390
5
  0
LAYER
  5
8F
330
10
100
AcDbSymbolTableRecord
100
AcDbLayerTableRecord
  2
035
 70
     0
 62
     5
  6
Continuous
370
    -3
390
5
  0
LAYER
  5
90
330
10
100
AcDbSymbolTableRecord
100
AcDbLayerTableRecord
  2
05
 70
     0
 62
     6
  6
Continuous
370
    -3
390
5
  0
LAYER
  5
91
330
10
100
AcDbSymbolTableRecord
100
AcDbLayerTableRecord
  2
025
 70
     0
 62
     1
  6
Continuous
370
    -3
390
5
  0
LAYER
  5
5CE
330
10
100
AcDbSymbolTableRecord
100
AcDbLayerTableRecord
  2
Defpoints
 70
     0
 62
     7
  6
Continuous
290
     0
370
    -3
390
5
  0
LAYER
  5
62B
330
10
100
AcDbSymbolTableRecord
100
AcDbLayerTableRecord
  2
\U+7C97\U+5B9E\U+7EBF
 70
     0
 62
     7
  6
Continuous
370
    30
390
5
  0
LAYER
  5
62C
330
10
100
AcDbSymbolTableRecord
100
AcDbLayerTableRecord
  2
\U+6807\U+6CE8\U+7EBF
 70
     0
 62
     7
  6
Continuous
370
    13
390
5
  0
LAYER
  5
1812
330
10
100
AcDbSymbolTableRecord
100
AcDbLayerTableRecord
  2
\U+4E2D\U+5FC3\U+7EBF
 70
     0
 62
     7
  6
ACAD_ISO04W100
370
    18
390
5
  0
ENDTAB
  0
TABLE
  2
STYLE
  5
11
330
0
100
AcDbSymbolTable
 70
     6
  0
STYLE
  5
12
330
11
100
AcDbSymbolTableRecord
100
AcDbTextStyleTableRecord
  2
Standard
 70
     0
 40
0.0
 41
1.0
 50
0.0
 71
     0
 42
2.5
  3
txt
  4

  0
STYLE
  5
31
330
11
100
AcDbSymbolTableRecord
100
AcDbTextStyleTableRecord
  2
ISO Proportional
 70
     0
 40
0.0
 41
1.0
 50
0.0
 71
     0
 42
2.5
  3
isocp.shx
  4

  0
STYLE
  5
B96
330
11
100
AcDbSymbolTableRecord
100
AcDbTextStyleTableRecord
  2
\U+C2A4\U+D0C0\U+C77C1
 70
     0
 40
0.1968
 41
1.0
 50
0.0
 71
     0
 42
2.5
  3
txt.shx
  4

  0
STYLE
  5
B97
330
11
100
AcDbSymbolTableRecord
100
AcDbTextStyleTableRecord
  2
\U+C2A4\U+D0C0\U+C77C2
 70
     0
 40
0.3937
 41
1.0
 50
0.0
 71
     0
 42
0.3937
  3
txt.shx
  4

  0
STYLE
  5
1CC5
330
11
100
AcDbSymbolTableRecord
100
AcDbTextStyleTableRecord
  2
STYLE5
 70
     0
 40
5.0
 41
1.0
 50
0.0
 71
     0
 42
5.0
  3
SIMPLEX.shx
  4

  0
STYLE
  5
1CC6
330
11
100
AcDbSymbolTableRecord
100
AcDbTextStyleTableRecord
  2
STYLE10
 70
     0
 40
10.0
 41
1.0
 50
0.0
 71
     0
 42
27.32712548649579
  3
SIMPLEX.shx
  4

  0
ENDTAB
  0
TABLE
  2
VIEW
  5
17
330
0
100
AcDbSymbolTable
 70
     0
  0
ENDTAB
  0
TABLE
  2
UCS
  5
18
330
0
100
AcDbSymbolTable
 70
     0
  0
ENDTAB
  0
TABLE
  2
APPID
  5
1B
330
0
100
AcDbSymbolTable
 70
    12
  0
APPID
  5
1C
330
1B
100
AcDbSymbolTableRecord
100
AcDbRegAppTableRecord
  2
ACAD
 70
     0
  0
APPID
  5
346
330
1B
100
AcDbSymbolTableRecord
100
AcDbRegAppTableRecord
  2
GENIUS_GENTRA_14
 70
     0
  0
APPID
  5
347
330
1B
100
AcDbSymbolTableRecord
100
AcDbRegAppTableRecord
  2
GENIUS_GENODEF_13
 70
     0
  0
APPID
  5
348
330
1B
100
AcDbSymbolTableRecord
100
AcDbRegAppTableRecord
  2
GENIUS_GENOBJ-N-TIT_13
 70
     0
  0
APPID
  5
349
330
1B
100
AcDbSymbolTableRecord
100
AcDbRegAppTableRecord
  2
GENIUS_GENTITLE_13
 70
     0
  0
APPID
  5
34A
330
1B
100
AcDbSymbolTableRecord
100
AcDbRegAppTableRecord
  2
GENIUS_GENOENT_13
 70
     0
  0
APPID
  5
34B
330
1B
100
AcDbSymbolTableRecord
100
AcDbRegAppTableRecord
  2
GENIUS_GENOREF_13
 70
     0
  0
APPID
  5
34C
330
1B
100
AcDbSymbolTableRecord
100
AcDbRegAppTableRecord
  2
GENIUS_GENOLIS_13
 70
     0
  0
APPID
  5
34D
330
1B
100
AcDbSymbolTableRecord
100
AcDbRegAppTableRecord
  2
GENIUS_GENOBJ-N-SDF_13
 70
     0
  0
APPID
  5
34E
330
1B
100
AcDbSymbolTableRecord
100
AcDbRegAppTableRecord
  2
GENIUS_GENSCREG_13
 70
     0
  0
APPID
  5
886
330
1B
100
AcDbSymbolTableRecord
100
AcDbRegAppTableRecord
  2
ACAD_DSTYLE_DIMTEXT_FILL
 70
     0
  0
APPID
  5
B8B
330
1B
100
AcDbSymbolTableRecord
100
AcDbRegAppTableRecord
  2
ACAD_PSEXT
 70
     0
  0
ENDTAB
  0
TABLE
  2
DIMSTYLE
  5
1D
330
0
100
AcDbSymbolTable
 70
     5
100
AcDbDimStyleTable
 71
     1
340
1E
  0
DIMSTYLE
105
1E
330
1D
100
AcDbSymbolTableRecord
100
AcDbDimStyleTableRecord
  2
DIN
 70
     0
 41
2.5
 42
0.625
 43
3.75
 44
1.25
 74
     0
 77
     1
 78
     8
140
2.5
141
2.5
143
0.0394
145
1.0
147
0.625
172
     1
273
     8
277
     6
340
12
  0
DIMSTYLE
105
62D
330
1D
100
AcDbSymbolTableRecord
100
AcDbDimStyleTableRecord
  2
ISO-25
 70
     0
 41
10.0
 42
0.625
 43
3.75
 44
10.0
 73
     0
 74
     0
 77
     1
 78
     8
140
20.0
141
2.5
143
0.03937007874016
147
10.0
171
     3
172
     1
271
     2
272
     2
274
     3
278
    44
279
     1
283
     0
284
     8
340
12
  0
DIMSTYLE
105
62E
330
1D
100
AcDbSymbolTableRecord
100
AcDbDimStyleTableRecord
  2
\U+526F\U+672CISO-25
 70
     0
 41
15.0
 42
0.625
 43
3.75
 44
2.0
 73
     0
 74
     0
 77
     1
 78
     8
140
22.0
141
2.5
143
0.03937007874016
147
10.0
171
     3
179
     1
271
     1
272
     1
274
     3
278
    44
279
     1
283
     0
284
     8
340
12
  0
DIMSTYLE
105
62F
330
1D
100
AcDbSymbolTableRecord
100
AcDbDimStyleTableRecord
  2
\U+526F\U+672C (2)ISO-25
 70
     0
 41
10.0
 42
0.625
 43
3.75
 44
10.0
 73
     0
 74
     0
 77
     1
 78
     8
140
10.0
141
2.5
143
0.03937007874016
147
10.0
171
     3
172
     1
271
     2
272
     2
274
     3
278
    44
283
     0
284
     8
340
12
  0
DIMSTYLE
105
1CC7
330
1D
100
AcDbSymbolTableRecord
100
AcDbDimStyleTableRecord
  2
10
 70
     0
 40
0.0
 41
3.0
 42
2.0
 43
10.0
 44
2.0
 73
     0
 74
     0
 77
     1
 78
     8
140
5.0
141
0.0
147
1.0
176
     4
177
     4
178
     4
271
     2
272
     0
279
     2
284
     8
285
     8
286
     8
288
     1
340
1CC6
  0
ENDTAB
  0
TABLE
  2
BLOCK_RECORD
  5
1
330
0
100
AcDbSymbolTable
 70
    13
  0
BLOCK_RECORD
  5
2
102
{ACAD_XDICTIONARY
360
95E
102
}
330
1
100
AcDbSymbolTableRecord
100
AcDbBlockTableRecord
  2
*Model_Space
340
A
  0
BLOCK_RECORD
  5
C
330
1
100
AcDbSymbolTableRecord
100
AcDbBlockTableRecord
  2
*Paper_Space
340
F
  0
BLOCK_RECORD
  5
1EED
330
1
100
AcDbSymbolTableRecord
100
AcDbBlockTableRecord
  2
*D0
340
0
  0
BLOCK_RECORD
  5
1EFF
330
1
100
AcDbSymbolTableRecord
100
AcDbBlockTableRecord
  2
*D1
340
0
  0
BLOCK_RECORD
  5
1F08
330
1
100
AcDbSymbolTableRecord
100
AcDbBlockTableRecord
  2
*D2
340
0
  0
BLOCK_RECORD
  5
1F11
330
1
100
AcDbSymbolTableRecord
100
AcDbBlockTableRecord
  2
*D3
340
0
  0
BLOCK_RECORD
  5
1F1A
330
1
100
AcDbSymbolTableRecord
100
AcDbBlockTableRecord
  2
*D4
340
0
  0
BLOCK_RECORD
  5
1F23
330
1
100
AcDbSymbolTableRecord
100
AcDbBlockTableRecord
  2
*D5
340
0
  0
BLOCK_RECORD
  5
1F30
330
1
100
AcDbSymbolTableRecord
100
AcDbBlockTableRecord
  2
*D6
340
0
  0
BLOCK_RECORD
  5
1F4A
330
1
100
AcDbSymbolTableRecord
100
AcDbBlockTableRecord
  2
*D7
340
0
  0
BLOCK_RECORD
  5
1F57
330
1
100
AcDbSymbolTableRecord
100
AcDbBlockTableRecord
  2
*D8
340
0
  0
BLOCK_RECORD
  5
1F64
330
1
100
AcDbSymbolTableRecord
100
AcDbBlockTableRecord
  2
*D9
340
0
  0
BLOCK_RECORD
  5
1F71
330
1
100
AcDbSymbolTableRecord
100
AcDbBlockTableRecord
  2
*D10
340
0
  0
BLOCK_RECORD
  5
1F86
330
1
100
AcDbSymbolTableRecord
100
AcDbBlockTableRecord
  2
*D11
340
0
  0
ENDTAB
  0
ENDSEC
  0
SECTION
  2
BLOCKS
  0
BLOCK
  5
3
330
2
100
AcDbEntity
  8
0
100
AcDbBlockBegin
  2
*Model_Space
 70
     2
 10
0.0
 20
0.0
 30
0.0
  3
*Model_Space
  1

  0
ENDBLK
  5
9
330
2
100
AcDbEntity
  8
0
100
AcDbBlockEnd
  0
BLOCK
  5
D
330
C
100
AcDbEntity
 67
     1
  8
0
100
AcDbBlockBegin
  2
*Paper_Space
 70
     0
 10
0.0
 20
0.0
 30
0.0
  3
*Paper_Space
  1

  0
ENDBLK
  5
E
330
C
100
AcDbEntity
 67
     1
  8
0
100
AcDbBlockEnd
  0
BLOCK
  5
1EF3
330
1EED
100
AcDbEntity
  8
0
100
AcDbBlockBegin
  2
*D0
 70
     1
 10
0.0
 20
0.0
 30
0.0
  3
*D0
  1

  0
LINE
  5
1EEE
330
1EED
100
AcDbEntity
  8
0
 62
     0
370
    -2
100
AcDbLine
 10
1216.692339655254
 20
1316.747018769979
 30
0.0
 11
1214.044509267327
 21
1319.533349680888
 31
0.0
  0
MTEXT
  5
1EEF
330
1EED
100
AcDbEntity
  8
0
 62
     0
100
AcDbMText
 10
1216.136224679487
 20
1317.690567678603
 30
0.0
 40
0.3937
 41
0.0
 71
     5
 72
     1
  1
\A1;R8.1102
  7
\U+C2A4\U+D0C0\U+C77C2
 11
0.6888610421344057
 21
-0.7248934160478358
 31
0.0
 73
     1
 44
1.0
  0
SOLID
  5
1EF0
330
1EED
100
AcDbEntity
  8
0
 62
     0
100
AcDbTrace
 10
1214.068672381195
 20
1319.556311715626
 30
0.0
 11
1214.020346153458
 21
1319.51038764615
 31
0.0
 12
1213.9067370589
 22
1319.678328364098
 32
0.0
 13
1213.9067370589
 23
1319.678328364098
 33
0.0
  0
POINT
  5
1EF1
330
1EED
100
AcDbEntity
  8
Defpoints
 62
     0
100
AcDbPoint
 10
1213.9067370589
 20
1319.678328364098
 30
0.0
  0
POINT
  5
1EF2
330
1EED
100
AcDbEntity
  8
Defpoints
 62
     0
100
AcDbPoint
 10
1219.49355166004
 20
1313.799283283398
 30
0.0
  0
ENDBLK
  5
1EF4
330
1EED
100
AcDbEntity
  8
0
100
AcDbBlockEnd
  0
BLOCK
  5
1F05
330
1EFF
100
AcDbEntity
  8
0
100
AcDbBlockBegin
  2
*D1
 70
     1
 10
0.0
 20
0.0
 30
0.0
  3
*D1
  1

  0
LINE
  5
1F00
330
1EFF
100
AcDbEntity
  8
0
 62
     0
370
    -2
100
AcDbLine
 10
1225.399487180919
 20
1317.599845555756
 30
0.0
 11
1227.069247029106
 21
1320.822920265727
 31
0.0
  0
MTEXT
  5
1F01
330
1EFF
100
AcDbEntity
  8
0
 62
     0
100
AcDbMText
 10
1225.671150349192
 20
1318.660858059094
 30
0.0
 40
0.3937
 41
0.0
 71
     5
 72
     1
  1
\A1;R8.1102
  7
\U+C2A4\U+D0C0\U+C77C2
 11
0.4599992628607761
 21
0.8879192971028068
 31
0.0
 73
     1
 44
1.0
  0
SOLID
  5
1F02
330
1EFF
100
AcDbEntity
  8
0
 62
     0
100
AcDbTrace
 10
1227.039649719202
 20
1320.838253574489
 30
0.0
 11
1227.098844339009
 21
1320.807586956965
 31
0.0
 12
1227.161246881678
 22
1321.000504125147
 32
0.0
 13
1227.161246881678
 23
1321.000504125147
 33
0.0
  0
POINT
  5
1F03
330
1EFF
100
AcDbEntity
  8
Defpoints
 62
     0
100
AcDbPoint
 10
1227.161246881678
 20
1321.000504125147
 30
0.0
  0
POINT
  5
1F04
330
1EFF
100
AcDbEntity
  8
Defpoints
 62
     0
100
AcDbPoint
 10
1223.430551660039
 20
1313.799283283398
 30
0.0
  0
ENDBLK
  5
1F06
330
1EFF
100
AcDbEntity
  8
0
100
AcDbBlockEnd
  0
BLOCK
  5
1F0E
330
1F08
100
AcDbEntity
  8
0
100
AcDbBlockBegin
  2
*D2
 70
     1
 10
0.0
 20
0.0
 30
0.0
  3
*D2
  1

  0
LINE
  5
1F09
330
1F08
100
AcDbEntity
  8
0
 62
     0
370
    -2
100
AcDbLine
 10
1231.024990261876
 20
1321.429910351171
 30
0.0
 11
1230.016115257139
 21
1319.108711632277
 31
0.0
  0
MTEXT
  5
1F0A
330
1F08
100
AcDbEntity
  8
0
 62
     0
100
AcDbMText
 10
1230.334023079167
 20
1320.459420436129
 30
0.0
 40
0.3937
 41
0.0
 71
     5
 72
     1
  1
\A1;R1.7323
  7
\U+C2A4\U+D0C0\U+C77C2
 11
0.3986125214621791
 21
0.9171194348249107
 31
0.0
 73
     1
 44
1.0
  0
SOLID
  5
1F0B
330
1F08
100
AcDbEntity
  8
0
 62
     0
100
AcDbTrace
 10
1229.985544609312
 20
1319.121998716325
 30
0.0
 11
1230.046685904967
 21
1319.095424548228
 31
0.0
 12
1229.936392752847
 22
1318.925287745312
 32
0.0
 13
1229.936392752847
 23
1318.925287745312
 33
0.0
  0
POINT
  5
1F0C
330
1F08
100
AcDbEntity
  8
Defpoints
 62
     0
100
AcDbPoint
 10
1229.936392752847
 20
1318.925287745312
 30
0.0
  0
POINT
  5
1F0D
330
1F08
100
AcDbEntity
  8
Defpoints
 62
     0
100
AcDbPoint
 10
1230.626901251526
 20
1320.51399539987
 30
0.0
  0
ENDBLK
  5
1F0F
330
1F08
100
AcDbEntity
  8
0
100
AcDbBlockEnd
  0
BLOCK
  5
1F17
330
1F11
100
AcDbEntity
  8
0
100
AcDbBlockBegin
  2
*D3
 70
     1
 10
0.0
 20
0.0
 30
0.0
  3
*D3
  1

  0
LINE
  5
1F12
330
1F11
100
AcDbEntity
  8
0
 62
     0
370
    -2
100
AcDbLine
 10
1237.566158611687
 20
1315.351065255898
 30
0.0
 11
1239.354768427513
 21
1317.951406449386
 31
0.0
  0
MTEXT
  5
1F13
330
1F11
100
AcDbEntity
  8
0
 62
     0
100
AcDbMText
 10
1238.060461273557
 20
1316.505277979346
 30
0.0
 40
0.3937
 41
0.0
 71
     5
 72
     1
  1
\A1;R3.7795
  7
\U+C2A4\U+D0C0\U+C77C2
 11
0.5667171205847231
 21
0.8239124378452849
 31
0.0
 73
     1
 44
1.0
  0
SOLID
  5
1F14
330
1F11
100
AcDbEntity
  8
0
 62
     0
100
AcDbTrace
 10
1239.327304679585
 20
1317.970297020072
 30
0.0
 11
1239.382232175441
 21
1317.9325158787
 31
0.0
 12
1239.46811185163
 22
1318.116188936955
 32
0.0
 13
1239.46811185163
 23
1318.116188936955
 33
0.0
  0
POINT
  5
1F15
330
1F11
100
AcDbEntity
  8
Defpoints
 62
     0
100
AcDbPoint
 10
1239.46811185163
 20
1318.116188936955
 30
0.0
  0
POINT
  5
1F16
330
1F11
100
AcDbEntity
  8
Defpoints
 62
     0
100
AcDbPoint
 10
1237.326193160039
 20
1315.002195399872
 30
0.0
  0
ENDBLK
  5
1F18
330
1F11
100
AcDbEntity
  8
0
100
AcDbBlockEnd
  0
BLOCK
  5
1F20
330
1F1A
100
AcDbEntity
  8
0
100
AcDbBlockBegin
  2
*D4
 70
     1
 10
0.0
 20
0.0
 30
0.0
  3
*D4
  1

  0
LINE
  5
1F1B
330
1F1A
100
AcDbEntity
  8
0
 62
     0
370
    -2
100
AcDbLine
 10
1237.78934167055
 20
1305.866205665886
 30
0.0
 11
1239.826228293298
 21
1303.779001543435
 31
0.0
  0
MTEXT
  5
1F1C
330
1F1A
100
AcDbEntity
  8
0
 62
     0
100
AcDbMText
 10
1238.825841554896
 20
1305.157537815444
 30
0.0
 40
0.3937
 41
0.0
 71
     5
 72
     1
  1
\A1;R3.7795
  7
\U+C2A4\U+D0C0\U+C77C2
 11
0.6984274800138306
 21
-0.7156808333059719
 31
0.0
 73
     1
 44
1.0
  0
SOLID
  5
1F1D
330
1F1A
100
AcDbEntity
  8
0
 62
     0
100
AcDbTrace
 10
1239.850084321075
 20
1303.802282459435
 30
0.0
 11
1239.802372265521
 21
1303.755720627434
 31
0.0
 12
1239.965913789301
 22
1303.635865376773
 32
0.0
 13
1239.965913789301
 23
1303.635865376773
 33
0.0
  0
POINT
  5
1F1E
330
1F1A
100
AcDbEntity
  8
Defpoints
 62
     0
100
AcDbPoint
 10
1239.965913789301
 20
1303.635865376773
 30
0.0
  0
POINT
  5
1F1F
330
1F1A
100
AcDbEntity
  8
Defpoints
 62
     0
100
AcDbPoint
 10
1237.326193160039
 20
1306.34079539987
 30
0.0
  0
ENDBLK
  5
1F21
330
1F1A
100
AcDbEntity
  8
0
100
AcDbBlockEnd
  0
BLOCK
  5
1F2D
330
1F23
100
AcDbEntity
  8
0
100
AcDbBlockBegin
  2
*D5
 70
     1
 10
0.0
 20
0.0
 30
0.0
  3
*D5
  1

  0
LINE
  5
1FC3
330
1F23
100
AcDbEntity
  8
0
 62
     0
370
    -2
100
AcDbLine
 10
1237.426193160039
 20
1302.79749539987
 30
0.0
 11
1242.188749393942
 21
1302.79749539987
 31
0.0
  0
LINE
  5
1FC4
330
1F23
100
AcDbEntity
  8
0
 62
     0
370
    -2
100
AcDbLine
 10
1237.426193160039
 20
1318.54549539987
 30
0.0
 11
1242.188749393942
 21
1318.54549539987
 31
0.0
  0
LINE
  5
1FC5
330
1F23
100
AcDbEntity
  8
0
 62
     0
370
    -2
100
AcDbLine
 10
1241.988749393942
 20
1302.99749539987
 30
0.0
 11
1241.988749393942
 21
1318.34549539987
 31
0.0
  0
SOLID
  5
1FC6
330
1F23
100
AcDbEntity
  8
0
 62
     0
100
AcDbTrace
 10
1241.955416060609
 20
1302.99749539987
 30
0.0
 11
1242.022082727275
 21
1302.99749539987
 31
0.0
 12
1241.988749393942
 22
1302.79749539987
 32
0.0
 13
1241.988749393942
 23
1302.79749539987
 33
0.0
  0
SOLID
  5
1FC7
330
1F23
100
AcDbEntity
  8
0
 62
     0
100
AcDbTrace
 10
1241.955416060609
 20
1318.34549539987
 30
0.0
 11
1242.022082727275
 21
1318.34549539987
 31
0.0
 12
1241.988749393942
 22
1318.54549539987
 32
0.0
 13
1241.988749393942
 23
1318.54549539987
 33
0.0
  0
MTEXT
  5
1FC8
330
1F23
100
AcDbEntity
  8
0
 62
     0
100
AcDbMText
 10
1241.741899393942
 20
1310.67149539987
 30
0.0
 40
0.3937
 41
0.0
 71
     5
 72
     1
  1
\A1;15.748
  7
\U+C2A4\U+D0C0\U+C77C2
 11
0.0000000000000001
 21
1.0
 31
0.0
 73
     1
 44
1.0
  0
POINT
  5
1FC9
330
1F23
100
AcDbEntity
  8
Defpoints
 62
     0
100
AcDbPoint
 10
1237.326193160039
 20
1302.79749539987
 30
0.0
  0
POINT
  5
1FCA
330
1F23
100
AcDbEntity
  8
Defpoints
 62
     0
100
AcDbPoint
 10
1237.326193160039
 20
1318.54549539987
 30
0.0
  0
POINT
  5
1FCB
330
1F23
100
AcDbEntity
  8
Defpoints
 62
     0
100
AcDbPoint
 10
1241.988749393942
 20
1318.54549539987
 30
0.0
  0
ENDBLK
  5
1F2E
330
1F23
100
AcDbEntity
  8
0
100
AcDbBlockEnd
  0
BLOCK
  5
1F3A
330
1F30
100
AcDbEntity
  8
0
100
AcDbBlockBegin
  2
*D6
 70
     1
 10
0.0
 20
0.0
 30
0.0
  3
*D6
  1

  0
LINE
  5
1F31
330
1F30
100
AcDbEntity
  8
0
 62
     0
370
    -2
100
AcDbLine
 10
1237.426193160039
 20
1302.56127539987
 30
0.0
 11
1242.959412758654
 21
1302.56127539987
 31
0.0
  0
LINE
  5
1F32
330
1F30
100
AcDbEntity
  8
0
 62
     0
370
    -2
100
AcDbLine
 10
1237.426193160039
 20
1318.78171539987
 30
0.0
 11
1242.959412758654
 21
1318.78171539987
 31
0.0
  0
LINE
  5
1F33
330
1F30
100
AcDbEntity
  8
0
 62
     0
370
    -2
100
AcDbLine
 10
1242.759412758654
 20
1302.76127539987
 30
0.0
 11
1242.759412758654
 21
1318.58171539987
 31
0.0
  0
SOLID
  5
1F34
330
1F30
100
AcDbEntity
  8
0
 62
     0
100
AcDbTrace
 10
1242.726079425321
 20
1302.76127539987
 30
0.0
 11
1242.792746091988
 21
1302.76127539987
 31
0.0
 12
1242.759412758654
 22
1302.56127539987
 32
0.0
 13
1242.759412758654
 23
1302.56127539987
 33
0.0
  0
SOLID
  5
1F35
330
1F30
100
AcDbEntity
  8
0
 62
     0
100
AcDbTrace
 10
1242.726079425321
 20
1318.58171539987
 30
0.0
 11
1242.792746091988
 21
1318.58171539987
 31
0.0
 12
1242.759412758654
 22
1318.78171539987
 32
0.0
 13
1242.759412758654
 23
1318.78171539987
 33
0.0
  0
MTEXT
  5
1F36
330
1F30
100
AcDbEntity
  8
0
 62
     0
100
AcDbMText
 10
1242.512562758654
 20
1310.67149539987
 30
0.0
 40
0.3937
 41
0.0
 71
     5
 72
     1
  1
\A1;16.2204
  7
\U+C2A4\U+D0C0\U+C77C2
 11
0.0000000000000001
 21
1.0
 31
0.0
 73
     1
 44
1.0
  0
POINT
  5
1F37
330
1F30
100
AcDbEntity
  8
Defpoints
 62
     0
100
AcDbPoint
 10
1237.326193160039
 20
1302.56127539987
 30
0.0
  0
POINT
  5
1F38
330
1F30
100
AcDbEntity
  8
Defpoints
 62
     0
100
AcDbPoint
 10
1237.326193160039
 20
1318.78171539987
 30
0.0
  0
POINT
  5
1F39
330
1F30
100
AcDbEntity
  8
Defpoints
 62
     0
100
AcDbPoint
 10
1242.759412758654
 20
1318.78171539987
 30
0.0
  0
ENDBLK
  5
1F3B
330
1F30
100
AcDbEntity
  8
0
100
AcDbBlockEnd
  0
BLOCK
  5
1F54
330
1F4A
100
AcDbEntity
  8
0
100
AcDbBlockBegin
  2
*D7
 70
     1
 10
0.0
 20
0.0
 30
0.0
  3
*D7
  1

  0
LINE
  5
1FBA
330
1F4A
100
AcDbEntity
  8
0
 62
     0
370
    -2
100
AcDbLine
 10
1215.062851660039
 20
1302.79749539987
 30
0.0
 11
1210.745505988049
 21
1302.79749539987
 31
0.0
  0
LINE
  5
1FBB
330
1F4A
100
AcDbEntity
  8
0
 62
     0
370
    -2
100
AcDbLine
 10
1221.362051660039
 20
1321.73485909987
 30
0.0
 11
1210.745505988049
 21
1321.73485909987
 31
0.0
  0
LINE
  5
1FBC
330
1F4A
100
AcDbEntity
  8
0
 62
     0
370
    -2
100
AcDbLine
 10
1210.945505988049
 20
1302.99749539987
 30
0.0
 11
1210.945505988049
 21
1321.53485909987
 31
0.0
  0
SOLID
  5
1FBD
330
1F4A
100
AcDbEntity
  8
0
 62
     0
100
AcDbTrace
 10
1210.912172654716
 20
1302.99749539987
 30
0.0
 11
1210.978839321382
 21
1302.99749539987
 31
0.0
 12
1210.945505988049
 22
1302.79749539987
 32
0.0
 13
1210.945505988049
 23
1302.79749539987
 33
0.0
  0
SOLID
  5
1FBE
330
1F4A
100
AcDbEntity
  8
0
 62
     0
100
AcDbTrace
 10
1210.912172654716
 20
1321.53485909987
 30
0.0
 11
1210.978839321382
 21
1321.53485909987
 31
0.0
 12
1210.945505988049
 22
1321.73485909987
 32
0.0
 13
1210.945505988049
 23
1321.73485909987
 33
0.0
  0
MTEXT
  5
1FBF
330
1F4A
100
AcDbEntity
  8
0
 62
     0
100
AcDbMText
 10
1210.698655988049
 20
1312.26617724987
 30
0.0
 40
0.3937
 41
0.0
 71
     5
 72
     1
  1
\A1;18.9374
  7
\U+C2A4\U+D0C0\U+C77C2
 11
0.0000000000000001
 21
1.0
 31
0.0
 73
     1
 44
1.0
  0
POINT
  5
1FC0
330
1F4A
100
AcDbEntity
  8
Defpoints
 62
     0
100
AcDbPoint
 10
1215.162851660039
 20
1302.79749539987
 30
0.0
  0
POINT
  5
1FC1
330
1F4A
100
AcDbEntity
  8
Defpoints
 62
     0
100
AcDbPoint
 10
1221.462051660039
 20
1321.73485909987
 30
0.0
  0
POINT
  5
1FC2
330
1F4A
100
AcDbEntity
  8
Defpoints
 62
     0
100
AcDbPoint
 10
1210.945505988049
 20
1321.73485909987
 30
0.0
  0
ENDBLK
  5
1F55
330
1F4A
100
AcDbEntity
  8
0
100
AcDbBlockEnd
  0
BLOCK
  5
1F61
330
1F57
100
AcDbEntity
  8
0
100
AcDbBlockBegin
  2
*D8
 70
     1
 10
0.0
 20
0.0
 30
0.0
  3
*D8
  1

  0
LINE
  5
1F58
330
1F57
100
AcDbEntity
  8
0
 62
     0
370
    -2
100
AcDbLine
 10
1215.062851660039
 20
1302.56127539987
 30
0.0
 11
1210.103290568163
 21
1302.56127539987
 31
0.0
  0
LINE
  5
1F59
330
1F57
100
AcDbEntity
  8
0
 62
     0
370
    -2
100
AcDbLine
 10
1221.362051660039
 20
1321.971079099869
 30
0.0
 11
1210.103290568163
 21
1321.971079099869
 31
0.0
  0
LINE
  5
1F5A
330
1F57
100
AcDbEntity
  8
0
 62
     0
370
    -2
100
AcDbLine
 10
1210.303290568163
 20
1302.76127539987
 30
0.0
 11
1210.303290568163
 21
1321.77107909987
 31
0.0
  0
SOLID
  5
1F5B
330
1F57
100
AcDbEntity
  8
0
 62
     0
100
AcDbTrace
 10
1210.26995723483
 20
1302.76127539987
 30
0.0
 11
1210.336623901496
 21
1302.76127539987
 31
0.0
 12
1210.303290568163
 22
1302.56127539987
 32
0.0
 13
1210.303290568163
 23
1302.56127539987
 33
0.0
  0
SOLID
  5
1F5C
330
1F57
100
AcDbEntity
  8
0
 62
     0
100
AcDbTrace
 10
1210.26995723483
 20
1321.77107909987
 30
0.0
 11
1210.336623901496
 21
1321.77107909987
 31
0.0
 12
1210.303290568163
 22
1321.971079099869
 32
0.0
 13
1210.303290568163
 23
1321.971079099869
 33
0.0
  0
MTEXT
  5
1F5D
330
1F57
100
AcDbEntity
  8
0
 62
     0
100
AcDbMText
 10
1210.056440568163
 20
1312.26617724987
 30
0.0
 40
0.3937
 41
0.0
 71
     5
 72
     1
  1
\A1;19.4098
  7
\U+C2A4\U+D0C0\U+C77C2
 11
0.0000000000000001
 21
1.0
 31
0.0
 73
     1
 44
1.0
  0
POINT
  5
1F5E
330
1F57
100
AcDbEntity
  8
Defpoints
 62
     0
100
AcDbPoint
 10
1215.162851660039
 20
1302.56127539987
 30
0.0
  0
POINT
  5
1F5F
330
1F57
100
AcDbEntity
  8
Defpoints
 62
     0
100
AcDbPoint
 10
1221.462051660039
 20
1321.971079099869
 30
0.0
  0
POINT
  5
1F60
330
1F57
100
AcDbEntity
  8
Defpoints
 62
     0
100
AcDbPoint
 10
1210.303290568163
 20
1321.971079099869
 30
0.0
  0
ENDBLK
  5
1F62
330
1F57
100
AcDbEntity
  8
0
100
AcDbBlockEnd
  0
BLOCK
  5
1F6E
330
1F64
100
AcDbEntity
  8
0
100
AcDbBlockBegin
  2
*D9
 70
     1
 10
0.0
 20
0.0
 30
0.0
  3
*D9
  1

  0
LINE
  5
1FB1
330
1F64
100
AcDbEntity
  8
0
 62
     0
370
    -2
100
AcDbLine
 10
1211.619551660039
 20
1306.24079539987
 30
0.0
 11
1211.619551660039
 21
1301.528240305443
 31
0.0
  0
LINE
  5
1FB2
330
1F64
100
AcDbEntity
  8
0
 62
     0
370
    -2
100
AcDbLine
 10
1240.869493160039
 20
1306.24079539987
 30
0.0
 11
1240.869493160039
 21
1301.528240305443
 31
0.0
  0
LINE
  5
1FB3
330
1F64
100
AcDbEntity
  8
0
 62
     0
370
    -2
100
AcDbLine
 10
1211.819551660039
 20
1301.728240305443
 30
0.0
 11
1240.669493160039
 21
1301.728240305443
 31
0.0
  0
SOLID
  5
1FB4
330
1F64
100
AcDbEntity
  8
0
 62
     0
100
AcDbTrace
 10
1211.819551660039
 20
1301.761573638776
 30
0.0
 11
1211.819551660039
 21
1301.69490697211
 31
0.0
 12
1211.619551660039
 22
1301.728240305443
 32
0.0
 13
1211.619551660039
 23
1301.728240305443
 33
0.0
  0
SOLID
  5
1FB5
330
1F64
100
AcDbEntity
  8
0
 62
     0
100
AcDbTrace
 10
1240.669493160039
 20
1301.761573638776
 30
0.0
 11
1240.669493160039
 21
1301.69490697211
 31
0.0
 12
1240.869493160039
 22
1301.728240305443
 32
0.0
 13
1240.869493160039
 23
1301.728240305443
 33
0.0
  0
MTEXT
  5
1FB6
330
1F64
100
AcDbEntity
  8
0
 62
     0
100
AcDbMText
 10
1226.244522410039
 20
1301.975090305443
 30
0.0
 40
0.3937
 41
0.0
 71
     5
 72
     1
  1
\A1;29.2499
  7
\U+C2A4\U+D0C0\U+C77C2
 73
     1
 44
1.0
  0
POINT
  5
1FB7
330
1F64
100
AcDbEntity
  8
Defpoints
 62
     0
100
AcDbPoint
 10
1211.619551660039
 20
1306.34079539987
 30
0.0
  0
POINT
  5
1FB8
330
1F64
100
AcDbEntity
  8
Defpoints
 62
     0
100
AcDbPoint
 10
1240.869493160039
 20
1306.34079539987
 30
0.0
  0
POINT
  5
1FB9
330
1F64
100
AcDbEntity
  8
Defpoints
 62
     0
100
AcDbPoint
 10
1240.869493160039
 20
1301.728240305443
 30
0.0
  0
ENDBLK
  5
1F6F
330
1F64
100
AcDbEntity
  8
0
100
AcDbBlockEnd
  0
BLOCK
  5
1F7B
330
1F71
100
AcDbEntity
  8
0
100
AcDbBlockBegin
  2
*D10
 70
     1
 10
0.0
 20
0.0
 30
0.0
  3
*D10
  1

  0
LINE
  5
1F72
330
1F71
100
AcDbEntity
  8
0
 62
     0
370
    -2
100
AcDbLine
 10
1211.383331660039
 20
1306.24079539987
 30
0.0
 11
1211.383331660039
 21
1300.80092836052
 31
0.0
  0
LINE
  5
1F73
330
1F71
100
AcDbEntity
  8
0
 62
     0
370
    -2
100
AcDbLine
 10
1241.105713160039
 20
1306.24079539987
 30
0.0
 11
1241.105713160039
 21
1300.80092836052
 31
0.0
  0
LINE
  5
1F74
330
1F71
100
AcDbEntity
  8
0
 62
     0
370
    -2
100
AcDbLine
 10
1211.583331660039
 20
1301.00092836052
 30
0.0
 11
1240.905713160039
 21
1301.00092836052
 31
0.0
  0
SOLID
  5
1F75
330
1F71
100
AcDbEntity
  8
0
 62
     0
100
AcDbTrace
 10
1211.583331660039
 20
1301.034261693853
 30
0.0
 11
1211.583331660039
 21
1300.967595027187
 31
0.0
 12
1211.383331660039
 22
1301.00092836052
 32
0.0
 13
1211.383331660039
 23
1301.00092836052
 33
0.0
  0
SOLID
  5
1F76
330
1F71
100
AcDbEntity
  8
0
 62
     0
100
AcDbTrace
 10
1240.905713160039
 20
1301.034261693853
 30
0.0
 11
1240.905713160039
 21
1300.967595027187
 31
0.0
 12
1241.105713160039
 22
1301.00092836052
 32
0.0
 13
1241.105713160039
 23
1301.00092836052
 33
0.0
  0
MTEXT
  5
1F77
330
1F71
100
AcDbEntity
  8
0
 62
     0
100
AcDbMText
 10
1226.244522410039
 20
1301.24777836052
 30
0.0
 40
0.3937
 41
0.0
 71
     5
 72
     1
  1
\A1;29.7224
  7
\U+C2A4\U+D0C0\U+C77C2
 73
     1
 44
1.0
  0
POINT
  5
1F78
330
1F71
100
AcDbEntity
  8
Defpoints
 62
     0
100
AcDbPoint
 10
1211.383331660039
 20
1306.34079539987
 30
0.0
  0
POINT
  5
1F79
330
1F71
100
AcDbEntity
  8
Defpoints
 62
     0
100
AcDbPoint
 10
1241.105713160039
 20
1306.34079539987
 30
0.0
  0
POINT
  5
1F7A
330
1F71
100
AcDbEntity
  8
Defpoints
 62
     0
100
AcDbPoint
 10
1241.105713160039
 20
1301.00092836052
 30
0.0
  0
ENDBLK
  5
1F7C
330
1F71
100
AcDbEntity
  8
0
100
AcDbBlockEnd
  0
BLOCK
  5
1F8C
330
1F86
100
AcDbEntity
  8
0
100
AcDbBlockBegin
  2
*D11
 70
     1
 10
0.0
 20
0.0
 30
0.0
  3
*D11
  1

  0
LINE
  5
1F87
330
1F86
100
AcDbEntity
  8
0
 62
     0
370
    -2
100
AcDbLine
 10
1222.48091021834
 20
1317.700594967584
 30
0.0
 11
1222.597805146533
 21
1321.754708537336
 31
0.0
  0
MTEXT
  5
1F88
330
1F86
100
AcDbEntity
  8
0
 62
     0
100
AcDbMText
 10
1222.274373094973
 20
1319.10227168111
 30
0.0
 40
0.3937
 41
0.0
 71
     5
 72
     1
  1
\A1;R39.6062
  7
\U+C2A4\U+D0C0\U+C77C2
 11
0.0288216806000474
 21
0.9995845690722667
 31
0.0
 73
     1
 44
1.0
  0
SOLID
  5
1F89
330
1F86
100
AcDbEntity
  8
0
 62
     0
100
AcDbTrace
 10
1222.564485660897
 20
1321.755669260023
 30
0.0
 11
1222.631124632168
 21
1321.75374781465
 31
0.0
 12
1222.603569482653
 22
1321.954625451151
 32
0.0
 13
1222.603569482653
 23
1321.954625451151
 33
0.0
  0
POINT
  5
1F8A
330
1F86
100
AcDbEntity
  8
Defpoints
 62
     0
100
AcDbPoint
 10
1222.603569482653
 20
1321.954625451151
 30
0.0
  0
POINT
  5
1F8B
330
1F86
100
AcDbEntity
  8
Defpoints
 62
     0
100
AcDbPoint
 10
1221.462051660037
 20
1282.364859099868
 30
0.0
  0
ENDBLK
  5
1F8D
330
1F86
100
AcDbEntity
  8
0
100
AcDbBlockEnd
  0
ENDSEC
  0
SECTION
  2
ENTITIES
  0
POINT
  5
37C
330
2
100
AcDbEntity
  8
0
 60
     1
100
AcDbPoint
 10
170.4737662487822
 20
-90.83440570086338
 30
0.0
1001
GENIUS_GENOBJ-N-TIT_13
1002
{
1000
OWNER
1000
GEN
1002
}
1001
GENIUS_GENOENT_13
1002
{
1000
MYREF
1005
37C
1002
}
1002
{
1000
GRP
1005
0
1002
}
1001
GENIUS_GENOLIS_13
1002
{
1000
ENT
1005
0
1005
0
1002
}
1001
GENIUS_GENTITLE_13
1002
{
1000
SCALE
1000
1:1
1002
}
1002
{
1000
BORDER
1000
GEN_A1
1002
}
1002
{
1000
TITLE
1000
GENTITLE
1002
}
1002
{
1000
UNCHG
1002
{
1000
GEN-TITLE-SCA
1000
GEN-TITLE-SIZ
1002
}
1002
}
1002
{
1000
HRA
1005
0
1002
}
1002
{
1000
HTIT
1005
0
1002
}
1002
{
1000
GENIUSID
1005
37C
1002
}
1001
GENIUS_GENODEF_13
1002
{
1000
HIER
1070
     1
1002
}
1002
{
1000
MANEDIT
1070
     0
1002
}
1002
{
1000
NOSEL
1070
     0
1002
}
1002
{
1000
BEHIND
1070
     0
1002
}
1002
{
1000
REACTOR
1002
}
  0
TEXT
  5
384
330
2
100
AcDbEntity
  8
0
 60
     1
100
AcDbText
 10
830.9999999999996
 20
-52.92726755347096
 30
0.0
 40
3.5
  1
!GENTITLE-INSERT
100
AcDbText
  0
TEXT
  5
385
330
2
100
AcDbEntity
  8
0
 60
     1
100
AcDbText
 10
10.0
 20
-47.92726755347096
 30
0.0
 40
3.5
  1
!GENTITLE-LL
100
AcDbText
  0
TEXT
  5
386
330
2
100
AcDbEntity
  8
0
 60
     1
100
AcDbText
 10
831.0
 20
526.072732446529
 30
0.0
 40
3.5
  1
!GENTITLE-RU
100
AcDbText
  0
TEXT
  5
387
330
2
100
AcDbEntity
  8
0
 60
     1
100
AcDbText
 10
841.0
 20
536.0727324465289
 30
0.0
 40
3.5
  1
!GENTITLE-MAX
100
AcDbText
  0
TEXT
  5
3FA
330
2
100
AcDbEntity
  8
0
 60
     1
100
AcDbText
 10
684.8812705983662
 20
141.8068575944205
 30
0.0
 40
3.5
  1
!GENTITLE-INSERT
100
AcDbText
  0
TEXT
  5
3FB
330
2
100
AcDbEntity
  8
0
 60
     1
100
AcDbText
 10
-136.1187294016335
 20
146.8068575944205
 30
0.0
 40
3.5
  1
!GENTITLE-LL
100
AcDbText
  0
TEXT
  5
3FC
330
2
100
AcDbEntity
  8
0
 60
     1
100
AcDbText
 10
684.8812705983664
 20
720.8068575944203
 30
0.0
 40
3.5
  1
!GENTITLE-RU
100
AcDbText
  0
TEXT
  5
3FD
330
2
100
AcDbEntity
  8
0
 60
     1
100
AcDbText
 10
694.8812705983664
 20
730.8068575944203
 30
0.0
 40
3.5
  1
!GENTITLE-MAX
100
AcDbText
  0
LINE
  5
957
330
2
100
AcDbEntity
  8
0
100
AcDbLine
 10
1922.436714220447
 20
2865.103595995832
 30
0.0
 11
1922.436714220447
 21
2845.733595995832
 31
0.0
  0
LINE
  5
1D4E
330
2
100
AcDbEntity
  8
0
100
AcDbLine
 10
1215.162851660039
 20
1302.79749539987
 30
0.0
 11
1237.326193160039
 21
1302.79749539987
 31
0.0
  0
ARC
  5
1D52
330
2
100
AcDbEntity
  8
0
100
AcDbCircle
 10
1215.162851660039
 20
1306.34079539987
 30
0.0
 40
3.543299999999999
100
AcDbArc
 50
180.0
 51
270.0
  0
ARC
  5
1D56
330
2
100
AcDbEntity
  8
0
100
AcDbCircle
 10
1237.326193160039
 20
1306.34079539987
 30
0.0
 40
3.543299999999999
100
AcDbArc
 50
270.0
 51
0.0
  0
ARC
  5
1D61
330
2
100
AcDbEntity
  8
0
100
AcDbCircle
 10
1237.326193160039
 20
1315.00219539987
 30
0.0
 40
3.543299999999999
100
AcDbArc
 50
0.0
 51
90.0
  0
LINE
  5
1D65
330
2
100
AcDbEntity
  8
0
100
AcDbLine
 10
1230.626901251527
 20
1318.54549539987
 30
0.0
 11
1237.326193160039
 21
1318.54549539987
 31
0.0
  0
ARC
  5
1D69
330
2
100
AcDbEntity
  8
0
100
AcDbCircle
 10
1221.462051660039
 20
1282.36485909987
 30
0.0
 40
39.37000000000001
100
AcDbArc
 50
86.41667830152812
 51
93.58332169847187
  0
ARC
  5
1D6D
330
2
100
AcDbEntity
  8
0
100
AcDbCircle
 10
1223.430551660039
 20
1313.799283283398
 30
0.0
 40
7.873999999999998
100
AcDbArc
 50
43.01706178317536
 51
86.41667830152812
  0
ARC
  5
1D6E
330
2
100
AcDbEntity
  8
0
100
AcDbCircle
 10
1230.626901251527
 20
1320.51399539987
 30
0.0
 40
1.968499999999998
100
AcDbArc
 50
223.0170617831754
 51
270.0
  0
ARC
  5
1D75
330
2
100
AcDbEntity
  8
0
100
AcDbCircle
 10
1219.493551660039
 20
1313.799283283398
 30
0.0
 40
7.873999999999998
100
AcDbArc
 50
93.58332169847187
 51
180.0
  0
LINE
  5
1D79
330
2
100
AcDbEntity
  8
0
100
AcDbLine
 10
1211.619551660039
 20
1306.34079539987
 30
0.0
 11
1211.619551660039
 21
1313.799283283398
 31
0.0
  0
LINE
  5
1D7D
330
2
100
AcDbEntity
  8
0
100
AcDbLine
 10
1240.869493160039
 20
1306.34079539987
 30
0.0
 11
1240.869493160039
 21
1315.00219539987
 31
0.0
  0
MTEXT
  5
2012
330
2
100
AcDbEntity
  8
0
100
AcDbMText
 10
1221.308223338964
 20
1308.162795733802
 30
0.0
 40
0.3937
 41
14.93397349915023
 71
     1
 72
     5
  3
{\fTimes New Roman|b0|i0|c0|p18;\H1.27x;Model : DES-3221S   \H0.58x;IMPORTANT ! \PThis template is provided as a guide for Undermount cutout only. \PBefore beginning to cut countertop, compare physical dimension of the template and the cutout line wi
  1
th the actual sink unit for an accurate cut.\PHamatUSA is not responsible for any countertop, installation or labor charges due to failure to follow these instructions.\P\Lwww.Hamatusa.com }
  7
\U+C2A4\U+D0C0\U+C77C2
 73
     1
 44
1.0
  0
VIEWPORT
  5
74
330
C
100
AcDbEntity
 67
     1
  8
0
100
AcDbViewport
 10
490.633788896909
 20
297.0009369707932
 30
0.0
 40
1115.370256166983
 41
599.3755656108596
 68
     1
 69
     1
 12
490.633788896909
 22
297.0009369707932
 13
0.0
 23
0.0
 14
10.0
 24
10.0
 15
10.0
 25
10.0
 16
0.0
 26
0.0
 36
1.0
 17
0.0
 27
0.0
 37
0.0
 42
50.0
 43
0.0
 44
0.0
 45
599.3755656108596
 50
0.0
 51
0.0
 72
  1000
 90
    32800
  1

281
     0
 71
     1
 74
     0
110
0.0
120
0.0
130
0.0
111
1.0
121
0.0
131
0.0
112
0.0
122
1.0
132
0.0
 79
     0
146
0.0
170
     0
  0
ENDSEC
  0
SECTION
  2
OBJECTS
  0
DICTIONARY
  5
7
330
0
100
AcDbDictionary
281
     1
  3
ACAD_COLOR
350
5A3
  3
ACAD_GROUP
350
20
  3
ACAD_LAYOUT
350
B
  3
ACAD_MATERIAL
350
5A2
  3
ACAD_MLINESTYLE
350
21
  3
ACAD_PLOTSETTINGS
350
22
  3
ACAD_PLOTSTYLENAME
350
6
  3
ACAD_TABLESTYLE
350
5C3
  3
ACAD_VISUALSTYLE
350
1FF7
  3
AcDbVariableDictionary
350
81
  0
DICTIONARY
  5
1FDC
330
10
100
AcDbDictionary
280
     1
281
     1
  3
ACAD_LAYERSTATES
360
1FDD
  0
DICTIONARY
  5
95E
330
2
100
AcDbDictionary
280
     1
281
     1
  3
ACAD_SORTENTS
360
95F
  0
DICTIONARY
  5
5A3
102
{ACAD_REACTORS
330
7
102
}
330
7
100
AcDbDictionary
281
     1
  0
DICTIONARY
  5
20
102
{ACAD_REACTORS
330
7
102
}
330
7
100
AcDbDictionary
281
     1
  0
DICTIONARY
  5
B
102
{ACAD_REACTORS
330
7
102
}
330
7
100
AcDbDictionary
281
     1
  3
DIN A1 Title Block
350
F
  3
Model
350
A
  0
DICTIONARY
  5
5A2
102
{ACAD_REACTORS
330
7
102
}
330
7
100
AcDbDictionary
281
     1
  3
ByBlock
350
1FF5
  3
ByLayer
350
1FF4
  3
Global
350
1FF6
  0
DICTIONARY
  5
21
102
{ACAD_REACTORS
330
7
102
}
330
7
100
AcDbDictionary
281
     1
  3
Standard
350
23
  0
DICTIONARY
  5
22
102
{ACAD_REACTORS
330
7
102
}
330
7
100
AcDbDictionary
281
     1
  0
ACDBDICTIONARYWDFLT
  5
6
102
{ACAD_REACTORS
330
7
102
}
330
7
100
AcDbDictionary
281
     1
  3
Normal
350
5
100
AcDbDictionaryWithDefault
340
5
  0
DICTIONARY
  5
5C3
102
{ACAD_REACTORS
330
7
102
}
330
7
100
AcDbDictionary
281
     1
  3
Standard
350
5C4
  0
DICTIONARY
  5
1FF7
102
{ACAD_REACTORS
330
7
102
}
330
7
100
AcDbDictionary
281
     1
  3
2dWireframe
350
1FFD
  3
3D Hidden
350
1FFF
  3
3dWireframe
350
1FFE
  3
Basic
350
1FFC
  3
Brighten
350
2003
  3
ColorChange
350
2007
  3
Conceptual
350
2000
  3
Dim
350
2002
  3
Facepattern
350
2006
  3
Flat
350
1FF8
  3
FlatWithEdges
350
1FF9
  3
Gouraud
350
1FFA
  3
GouraudWithEdges
350
1FFB
  3
Linepattern
350
2005
  3
Realistic
350
2001
  3
Thicken
350
2004
  0
DICTIONARY
  5
81
102
{ACAD_REACTORS
330
7
102
}
330
7
100
AcDbDictionary
281
     1
  3
CTABLESTYLE
350
5EE
  3
DIMASSOC
350
82
  3
PROJECTNAME
350
1FCC
  0
DICTIONARY
  5
1FDD
102
{ACAD_REACTORS
330
1FDC
102
}
330
1FDC
100
AcDbDictionary
281
     1
  0
SORTENTSTABLE
  5
95F
102
{ACAD_REACTORS
330
95E
102
}
330
95E
100
AcDbSortentsTable
330
2
331
1D7D
  5
1EEA
331
3FD
  5
3FD
331
387
  5
387
331
1D52
  5
1D56
331
1D6E
  5
1EE4
331
3FB
  5
3FB
331
385
  5
385
331
1D61
  5
1D6D
331
1D69
  5
1D7D
331
1D79
  5
1EE8
331
1D4E
  5
1D4E
331
1D56
  5
1D65
331
3FC
  5
3FC
331
386
  5
386
331
1D65
  5
1D75
331
1D6D
  5
1EE2
331
37C
  5
37C
331
957
  5
959
331
3FA
  5
3FA
331
1D75
  5
1EE6
331
384
  5
384
  0
LAYOUT
  5
F
102
{ACAD_REACTORS
330
B
102
}
330
B
100
AcDbPlotSettings
  1

  2
none_device
  4
ISO_A1_(841.00_x_594.00_MM)
  6

 40
7.549999999999998
 41
20.05
 42
7.549999999999998
 43
20.05
 44
841.0
 45
594.0
 46
-7.57
 47
-20.06
 48
0.0
 49
0.0
140
0.0
141
0.0
142
1.0
143
1.0
 70
   688
 72
     1
 73
     0
 74
     5
  7

 75
    16
147
1.0
 76
     0
 77
     2
 78
   300
148
0.0128164049386896
149
0.0090630292066862
100
AcDbLayout
  1
DIN A1 Title Block
 70
     1
 71
     1
 10
0.0071835950613108
 20
0.0009369707933118
 11
841.0071835950612
 21
594.0009369707931
 12
0.0
 22
0.0
 32
0.0
 14
1.000000000000000E+20
 24
1.000000000000000E+20
 34
1.000000000000000E+20
 15
-1.000000000000000E+20
 25
-1.000000000000000E+20
 35
-1.000000000000000E+20
146
0.0
 13
0.0
 23
0.0
 33
0.0
 16
1.0
 26
0.0
 36
0.0
 17
0.0
 27
1.0
 37
0.0
 76
     0
330
C
331
74
  0
LAYOUT
  5
A
102
{ACAD_REACTORS
330
B
102
}
330
B
100
AcDbPlotSettings
  1

  2
none_device
  4
ISO_A4_(297.00_x_210.00_MM)
  6

 40
7.5
 41
20.0
 42
7.5
 43
20.0
 44
297.0
 45
210.0
 46
0.0
 47
0.0
 48
969.1120635225747
 49
1410.089773188028
140
997.7071895623687
141
1431.243016253039
142
1.0
143
20.0
 70
 11952
 72
     1
 73
     0
 74
     4
  7

 75
    22
147
0.05
 76
     0
 77
     2
 78
   300
148
-969.1120635225747
149
-1410.089773188028
100
AcDbLayout
  1
Model
 70
     1
 71
     0
 10
0.0
 20
0.0
 11
12.0
 21
9.0
 12
0.0
 22
0.0
 32
0.0
 14
0.0
 24
0.0
 34
0.0
 15
0.0
 25
0.0
 35
0.0
146
0.0
 13
0.0
 23
0.0
 33
0.0
 16
1.0
 26
0.0
 36
0.0
 17
0.0
 27
1.0
 37
0.0
 76
     0
330
2
331
1FE7
1001
ACAD_PSEXT
1000
\U+C5C6\U+C74C
1000
\U+C5C6\U+C74C
1000
\U+C801\U+C6A9 \U+AC00\U+B2A5\U+D558\U+C9C0 \U+C54A\U+C74C
1000
\U+BC30\U+CE58\U+AC00 \U+C0C8\U+B85C\U+C6B4 \U+D50C\U+B85C\U+D130 \U+AD6C\U+C131\U+C744 \U+C120\U+D0DD\U+D560 \U+B54C\U+AE4C\U+C9C0 \U+D50C\U+B86F\U+B418\U+C9C0 \U+C54A\U+C2B5\U+B2C8\U+B2E4.
1070
     0
  0
MATERIAL
  5
1FF5
102
{ACAD_XDICTIONARY
360
2017
102
}
102
{ACAD_REACTORS
330
5A2
102
}
330
5A2
100
AcDbMaterial
  1
ByBlock
  0
MATERIAL
  5
1FF4
102
{ACAD_XDICTIONARY
360
2015
102
}
102
{ACAD_REACTORS
330
5A2
102
}
330
5A2
100
AcDbMaterial
  1
ByLayer
  0
MATERIAL
  5
1FF6
102
{ACAD_XDICTIONARY
360
2019
102
}
102
{ACAD_REACTORS
330
5A2
102
}
330
5A2
100
AcDbMaterial
  1
Global
  0
MLINESTYLE
  5
23
102
{ACAD_REACTORS
330
21
102
}
330
21
100
AcDbMlineStyle
  2
STANDARD
 70
     0
  3

 62
   256
 51
90.0
 52
90.0
 71
     2
 49
0.5
 62
   256
  6
BYLAYER
 49
-0.5
 62
   256
  6
BYLAYER
  0
ACDBPLACEHOLDER
  5
5
102
{ACAD_REACTORS
330
6
102
}
330
6
  0
TABLESTYLE
  5
5C4
102
{ACAD_XDICTIONARY
360
2013
102
}
102
{ACAD_REACTORS
330
5C3
102
}
330
5C3
100
AcDbTableStyle
  3
Standard
 70
     0
 71
     0
 40
1.5
 41
1.5
280
     0
281
     0
  7
Standard
140
4.5
170
     2
 62
     0
 63
     7
283
     0
274
    -2
284
     1
 64
     0
275
    -2
285
     1
 65
     0
276
    -2
286
     1
 66
     0
277
    -2
287
     1
 67
     0
278
    -2
288
     1
 68
     0
279
    -2
289
     1
 69
     0
  7
Standard
140
6.0
170
     5
 62
     0
 63
     7
283
     0
274
    -2
284
     1
 64
     0
275
    -2
285
     1
 65
     0
276
    -2
286
     1
 66
     0
277
    -2
287
     1
 67
     0
278
    -2
288
     1
 68
     0
279
    -2
289
     1
 69
     0
  7
Standard
140
4.5
170
     5
 62
     0
 63
     7
283
     0
274
    -2
284
     1
 64
     0
275
    -2
285
     1
 65
     0
276
    -2
286
     1
 66
     0
277
    -2
287
     1
 67
     0
278
    -2
288
     1
 68
     0
279
    -2
289
     1
 69
     0
  0
VISUALSTYLE
  5
1FFD
102
{ACAD_REACTORS
330
1FF7
102
}
330
1FF7
100
AcDbVisualStyle
  2
2dWireframe
 70
     4
 71
     0
 72
     2
 73
     0
 90
        0
 40
-0.6
 41
-30.0
 62
     5
 63
     7
421
 16777215
 74
     1
 91
        4
 64
     7
 65
   257
 75
     1
175
     1
 42
1.0
 92
        0
 66
   257
 43
1.0
 76
     1
 77
     6
 78
     2
 67
     7
 79
     5
170
     0
171
     0
290
     0
174
     0
 93
        1
 44
0.0
173
     0
291
     0
 45
0.0
1001
ACAD
1000
AcDbSavedByObjectVersion
1070
     0
  0
VISUALSTYLE
  5
1FFF
102
{ACAD_REACTORS
330
1FF7
102
}
330
1FF7
100
AcDbVisualStyle
  2
3D Hidden
 70
     6
 71
     1
 72
     2
 73
     2
 90
        0
 40
-0.6
 41
-30.0
 62
     5
 63
     7
421
 16777215
 74
     2
 91
        2
 64
     7
 65
   257
 75
     2
175
     1
 42
40.0
 92
        0
 66
   257
 43
1.0
 76
     1
 77
     6
 78
     2
 67
     7
 79
     3
170
     0
171
     0
290
     0
174
     0
 93
        1
 44
0.0
173
     0
291
     0
 45
0.0
1001
ACAD
1000
AcDbSavedByObjectVersion
1070
     0
  0
VISUALSTYLE
  5
1FFE
102
{ACAD_REACTORS
330
1FF7
102
}
330
1FF7
100
AcDbVisualStyle
  2
3dWireframe
 70
     5
 71
     0
 72
     2
 73
     0
 90
        0
 40
-0.6
 41
-30.0
 62
     5
 63
     7
421
 16777215
 74
     1
 91
        4
 64
     7
 65
   257
 75
     1
175
     1
 42
1.0
 92
        0
 66
   257
 43
1.0
 76
     1
 77
     6
 78
     2
 67
     7
 79
     5
170
     0
171
     0
290
     0
174
     0
 93
        1
 44
0.0
173
     0
291
     0
 45
0.0
1001
ACAD
1000
AcDbSavedByObjectVersion
1070
     0
  0
VISUALSTYLE
  5
1FFC
102
{ACAD_REACTORS
330
1FF7
102
}
330
1FF7
100
AcDbVisualStyle
  2
Basic
 70
     7
 71
     1
 72
     0
 73
     1
 90
        0
 40
-0.6
 41
-30.0
 62
     5
 63
     7
421
 16777215
 74
     0
 91
        4
 64
     7
 65
   257
 75
     1
175
     1
 42
1.0
 92
        8
 66
     7
 43
1.0
 76
     1
 77
     6
 78
     2
 67
     7
 79
     5
170
     0
171
     0
290
     0
174
     0
 93
        1
 44
0.0
173
     0
291
     1
 45
0.0
1001
ACAD
1000
AcDbSavedByObjectVersion
1070
     0
  0
VISUALSTYLE
  5
2003
102
{ACAD_REACTORS
330
1FF7
102
}
330
1FF7
100
AcDbVisualStyle
  2
Brighten
 70
    12
 71
     2
 72
     2
 73
     0
 90
        0
 40
-0.6
 41
-30.0
 62
     5
 63
     7
421
 16777215
 74
     1
 91
        4
 64
     7
 65
   257
 75
     1
175
     1
 42
1.0
 92
        8
 66
     7
 43
1.0
 76
     1
 77
     6
 78
     2
 67
     7
 79
     5
170
     0
171
     0
290
     0
174
     0
 93
        1
 44
50.0
173
     0
291
     1
 45
0.0
1001
ACAD
1000
AcDbSavedByObjectVersion
1070
     0
  0
VISUALSTYLE
  5
2007
102
{ACAD_REACTORS
330
1FF7
102
}
330
1FF7
100
AcDbVisualStyle
  2
ColorChange
 70
    16
 71
     2
 72
     2
 73
     3
 90
        0
 40
-0.6
 41
-30.0
 62
     5
 63
     8
421
  8421504
 74
     1
 91
        4
 64
     7
 65
   257
 75
     1
175
     1
 42
1.0
 92
        8
 66
     8
424
  8421504
 43
1.0
 76
     1
 77
     6
 78
     2
 67
     7
 79
     5
170
     0
171
     0
290
     0
174
     0
 93
        1
 44
0.0
173
     0
291
     1
 45
0.0
1001
ACAD
1000
AcDbSavedByObjectVersion
1070
     0
  0
VISUALSTYLE
  5
2000
102
{ACAD_REACTORS
330
1FF7
102
}
330
1FF7
100
AcDbVisualStyle
  2
Conceptual
 70
     9
 71
     3
 72
     2
 73
     0
 90
        0
 40
-0.6
 41
-30.0
 62
     5
 63
     7
421
 16777215
 74
     2
 91
        2
 64
     7
 65
   257
 75
     1
175
     1
 42
40.0
 92
        8
 66
     7
 43
1.0
 76
     1
 77
     6
 78
     2
 67
     7
 79
     3
170
     0
171
     0
290
     0
174
     0
 93
        1
 44
0.0
173
     0
291
     0
 45
0.0
1001
ACAD
1000
AcDbSavedByObjectVersion
1070
     0
  0
VISUALSTYLE
  5
2002
102
{ACAD_REACTORS
330
1FF7
102
}
330
1FF7
100
AcDbVisualStyle
  2
Dim
 70
    11
 71
     2
 72
     2
 73
     0
 90
        0
 40
-0.6
 41
-30.0
 62
     5
 63
     7
421
 16777215
 74
     1
 91
        4
 64
     7
 65
   257
 75
     1
175
     1
 42
1.0
 92
        8
 66
     7
 43
1.0
 76
     1
 77
     6
 78
     2
 67
     7
 79
     5
170
     0
171
     0
290
     0
174
     0
 93
        1
 44
-50.0
173
     0
291
     1
 45
0.0
1001
ACAD
1000
AcDbSavedByObjectVersion
1070
     0
  0
VISUALSTYLE
  5
2006
102
{ACAD_REACTORS
330
1FF7
102
}
330
1FF7
100
AcDbVisualStyle
  2
Facepattern
 70
    15
 71
     2
 72
     2
 73
     0
 90
        0
 40
-0.6
 41
-30.0
 62
     5
 63
     7
421
 16777215
 74
     1
 91
        4
 64
     7
 65
   257
 75
     1
175
     1
 42
1.0
 92
        8
 66
     7
 43
1.0
 76
     1
 77
     6
 78
     2
 67
     7
 79
     5
170
     0
171
     0
290
     0
174
     0
 93
        1
 44
0.0
173
     0
291
     1
 45
0.0
1001
ACAD
1000
AcDbSavedByObjectVersion
1070
     0
  0
VISUALSTYLE
  5
1FF8
102
{ACAD_REACTORS
330
1FF7
102
}
330
1FF7
100
AcDbVisualStyle
  2
Flat
 70
     0
 71
     2
 72
     1
 73
     1
 90
        2
 40
-0.6
 41
30.0
 62
     5
 63
     7
421
 16777215
 74
     0
 91
        4
 64
     7
 65
   257
 75
     1
175
     1
 42
1.0
 92
        8
 66
     7
 43
1.0
 76
     1
 77
     6
 78
     2
 67
     7
 79
     5
170
     0
171
     0
290
     0
174
     0
 93
       13
 44
0.0
173
     0
291
     1
 45
0.0
1001
ACAD
1000
AcDbSavedByObjectVersion
1070
     0
  0
VISUALSTYLE
  5
1FF9
102
{ACAD_REACTORS
330
1FF7
102
}
330
1FF7
100
AcDbVisualStyle
  2
FlatWithEdges
 70
     1
 71
     2
 72
     1
 73
     1
 90
        2
 40
-0.6
 41
30.0
 62
     5
 63
     7
421
 16777215
 74
     1
 91
        4
 64
     7
 65
   257
 75
     1
175
     1
 42
1.0
 92
        0
 66
   257
 43
1.0
 76
     1
 77
     6
 78
     2
 67
     7
 79
     5
170
     0
171
     0
290
     0
174
     0
 93
       13
 44
0.0
173
     0
291
     1
 45
0.0
1001
ACAD
1000
AcDbSavedByObjectVersion
1070
     0
  0
VISUALSTYLE
  5
1FFA
102
{ACAD_REACTORS
330
1FF7
102
}
330
1FF7
100
AcDbVisualStyle
  2
Gouraud
 70
     2
 71
     2
 72
     2
 73
     1
 90
        2
 40
-0.6
 41
30.0
 62
     5
 63
     7
421
 16777215
 74
     0
 91
        4
 64
     7
 65
   257
 75
     1
175
     1
 42
1.0
 92
        0
 66
     7
 43
1.0
 76
     1
 77
     6
 78
     2
 67
     7
 79
     5
170
     0
171
     0
290
     0
174
     0
 93
       13
 44
0.0
173
     0
291
     1
 45
0.0
1001
ACAD
1000
AcDbSavedByObjectVersion
1070
     0
  0
VISUALSTYLE
  5
1FFB
102
{ACAD_REACTORS
330
1FF7
102
}
330
1FF7
100
AcDbVisualStyle
  2
GouraudWithEdges
 70
     3
 71
     2
 72
     2
 73
     1
 90
        2
 40
-0.6
 41
30.0
 62
     5
 63
     7
421
 16777215
 74
     1
 91
        4
 64
     7
 65
   257
 75
     1
175
     1
 42
1.0
 92
        0
 66
   257
 43
1.0
 76
     1
 77
     6
 78
     2
 67
     7
 79
     5
170
     0
171
     0
290
     0
174
     0
 93
       13
 44
0.0
173
     0
291
     1
 45
0.0
1001
ACAD
1000
AcDbSavedByObjectVersion
1070
     0
  0
VISUALSTYLE
  5
2005
102
{ACAD_REACTORS
330
1FF7
102
}
330
1FF7
100
AcDbVisualStyle
  2
Linepattern
 70
    14
 71
     2
 72
     2
 73
     0
 90
        0
 40
-0.6
 41
-30.0
 62
     5
 63
     7
421
 16777215
 74
     1
 91
        4
 64
     7
 65
   257
 75
     7
175
     7
 42
1.0
 92
        8
 66
     7
 43
1.0
 76
     1
 77
     6
 78
     2
 67
     7
 79
     5
170
     0
171
     0
290
     0
174
     0
 93
        1
 44
0.0
173
     0
291
     1
 45
0.0
1001
ACAD
1000
AcDbSavedByObjectVersion
1070
     0
  0
VISUALSTYLE
  5
2001
102
{ACAD_REACTORS
330
1FF7
102
}
330
1FF7
100
AcDbVisualStyle
  2
Realistic
 70
     8
 71
     2
 72
     2
 73
     0
 90
        0
 40
-0.6
 41
-30.0
 62
     5
 63
     7
421
 16777215
 74
     1
 91
        0
 64
     7
 65
   257
 75
     1
175
     1
 42
1.0
 92
        8
 66
     8
424
  7895160
 43
1.0
 76
     1
 77
     6
 78
     2
 67
     7
 79
     5
170
     0
171
     0
290
     0
174
     0
 93
       13
 44
0.0
173
     0
291
     0
 45
0.0
1001
ACAD
1000
AcDbSavedByObjectVersion
1070
     0
  0
VISUALSTYLE
  5
2004
102
{ACAD_REACTORS
330
1FF7
102
}
330
1FF7
100
AcDbVisualStyle
  2
Thicken
 70
    13
 71
     2
 72
     2
 73
     0
 90
        0
 40
-0.6
 41
-30.0
 62
     5
 63
     7
421
 16777215
 74
     1
 91
        4
 64
     7
 65
   257
 75
     1
175
     1
 42
1.0
 92
       12
 66
     7
 43
1.0
 76
     1
 77
     6
 78
     2
 67
     7
 79
     5
170
     0
171
     0
290
     0
174
     0
 93
        1
 44
0.0
173
     0
291
     1
 45
0.0
1001
ACAD
1000
AcDbSavedByObjectVersion
1070
     0
  0
DICTIONARYVAR
  5
5EE
102
{ACAD_REACTORS
330
81
102
}
330
81
100
DictionaryVariables
280
     0
  1
STANDARD
  0
DICTIONARYVAR
  5
82
102
{ACAD_REACTORS
330
81
102
}
330
81
100
DictionaryVariables
280
     0
  1
1
  0
DICTIONARYVAR
  5
1FCC
102
{ACAD_REACTORS
330
81
102
}
330
81
100
DictionaryVariables
280
     0
  1

  0
DICTIONARY
  5
2017
330
1FF5
100
AcDbDictionary
280
     1
281
     1
  3
ACAD_XREC_ROUNDTRIP
360
2018
  0
DICTIONARY
  5
2015
330
1FF4
100
AcDbDictionary
280
     1
281
     1
  3
ACAD_XREC_ROUNDTRIP
360
2016
  0
DICTIONARY
  5
2019
330
1FF6
100
AcDbDictionary
280
     1
281
     1
  3
ACAD_XREC_ROUNDTRIP
360
201A
  0
DICTIONARY
  5
2013
330
5C4
100
AcDbDictionary
280
     1
281
     1
  3
ACAD_XREC_ROUNDTRIP
360
2014
  0
XRECORD
  5
2018
102
{ACAD_REACTORS
330
2017
102
}
330
2017
100
AcDbXrecord
280
     1
102
MATERIAL
148
0.0
149
0.0
149
0.0
 93
        0
 94
       63
282
     0
 72
     1
 77
     1
171
     1
175
     1
179
     1
273
     0
  0
XRECORD
  5
2016
102
{ACAD_REACTORS
330
2015
102
}
330
2015
100
AcDbXrecord
280
     1
102
MATERIAL
148
0.0
149
0.0
149
0.0
 93
        0
 94
       63
282
     0
 72
     1
 77
     1
171
     1
175
     1
179
     1
273
     0
  0
XRECORD
  5
201A
102
{ACAD_REACTORS
330
2019
102
}
330
2019
100
AcDbXrecord
280
     1
102
MATERIAL
148
0.0
149
0.0
149
0.0
 93
        0
 94
       63
282
     0
 72
     1
 77
     1
171
     1
175
     1
179
     1
273
     0
  0
XRECORD
  5
2014
102
{ACAD_REACTORS
330
2013
102
}
330
2013
100
AcDbXrecord
280
     1
102
ACAD_ROUNDTRIP_PRE2007_TABLESTYLE
 90
        4
 91
        0
  1

 92
        4
 93
        0
  2

 94
        4
 95
        0
  3

  0
ENDSEC
  0
EOF
